  0
SECTION
  2
HEADER
  9
$ACADVER
  1
AC1015
  9
$ACADMAINTVER
 70
    18
  9
$DWGCODEPAGE
  3
ANSI_1252
  9
$INSBASE
 10
0.0
 20
0.0
 30
0.0
  9
$EXTMIN
 10
1.000000000000000E+20
 20
1.000000000000000E+20
 30
1.000000000000000E+20
  9
$EXTMAX
 10
-1.000000000000000E+20
 20
-1.000000000000000E+20
 30
-1.000000000000000E+20
  9
$LIMMIN
 10
0.0
 20
0.0
  9
$LIMMAX
 10
12.0
 20
9.0
  9
$ORTHOMODE
 70
     0
  9
$REGENMODE
 70
     1
  9
$FILLMODE
 70
     1
  9
$QTEXTMODE
 70
     0
  9
$MIRRTEXT
 70
     1
  9
$LTSCALE
 40
1.0
  9
$ATTMODE
 70
     1
  9
$TEXTSIZE
 40
0.2
  9
$TRACEWID
 40
0.05
  9
$TEXTSTYLE
  7
Standard
  9
$CLAYER
  8
0
  9
$CELTYPE
  6
ByLayer
  9
$CECOLOR
 62
   256
  9
$CELTSCALE
 40
1.0
  9
$DISPSILH
 70
     0
  9
$DIMSCALE
 40
1.0
  9
$DIMASZ
 40
0.18
  9
$DIMEXO
 40
0.0625
  9
$DIMDLI
 40
0.38
  9
$DIMRND
 40
0.0
  9
$DIMDLE
 40
0.0
  9
$DIMEXE
 40
0.18
  9
$DIMTP
 40
0.0
  9
$DIMTM
 40
0.0
  9
$DIMTXT
 40
0.18
  9
$DIMCEN
 40
0.09
  9
$DIMTSZ
 40
0.0
  9
$DIMTOL
 70
     0
  9
$DIMLIM
 70
     0
  9
$DIMTIH
 70
     1
  9
$DIMTOH
 70
     1
  9
$DIMSE1
 70
     0
  9
$DIMSE2
 70
     0
  9
$DIMTAD
 70
     0
  9
$DIMZIN
 70
     0
  9
$DIMBLK
  1

  9
$DIMASO
 70
     1
  9
$DIMSHO
 70
     1
  9
$DIMPOST
  1

  9
$DIMAPOST
  1

  9
$DIMALT
 70
     0
  9
$DIMALTD
 70
     2
  9
$DIMALTF
 40
25.4
  9
$DIMLFAC
 40
1.0
  9
$DIMTOFL
 70
     0
  9
$DIMTVP
 40
0.0
  9
$DIMTIX
 70
     0
  9
$DIMSOXD
 70
     0
  9
$DIMSAH
 70
     0
  9
$DIMBLK1
  1

  9
$DIMBLK2
  1

  9
$DIMSTYLE
  2
Standard
  9
$DIMCLRD
 70
     0
  9
$DIMCLRE
 70
     0
  9
$DIMCLRT
 70
     0
  9
$DIMTFAC
 40
1.0
  9
$DIMGAP
 40
0.09
  9
$DIMJUST
 70
     0
  9
$DIMSD1
 70
     0
  9
$DIMSD2
 70
     0
  9
$DIMTOLJ
 70
     1
  9
$DIMTZIN
 70
     0
  9
$DIMALTZ
 70
     0
  9
$DIMALTTZ
 70
     0
  9
$DIMUPT
 70
     0
  9
$DIMDEC
 70
     4
  9
$DIMTDEC
 70
     4
  9
$DIMALTU
 70
     2
  9
$DIMALTTD
 70
     2
  9
$DIMTXSTY
  7
Standard
  9
$DIMAUNIT
 70
     0
  9
$DIMADEC
 70
     0
  9
$DIMALTRND
 40
0.0
  9
$DIMAZIN
 70
     0
  9
$DIMDSEP
 70
    46
  9
$DIMATFIT
 70
     3
  9
$DIMFRAC
 70
     0
  9
$DIMLDRBLK
  1

  9
$DIMLUNIT
 70
     2
  9
$DIMLWD
 70
    -2
  9
$DIMLWE
 70
    -2
  9
$DIMTMOVE
 70
     0
  9
$LUNITS
 70
     2
  9
$LUPREC
 70
     4
  9
$SKETCHINC
 40
0.1
  9
$FILLETRAD
 40
0.5
  9
$AUNITS
 70
     0
  9
$AUPREC
 70
     0
  9
$MENU
  1
.
  9
$ELEVATION
 40
0.0
  9
$PELEVATION
 40
0.0
  9
$THICKNESS
 40
0.0
  9
$LIMCHECK
 70
     0
  9
$CHAMFERA
 40
0.5
  9
$CHAMFERB
 40
0.5
  9
$CHAMFERC
 40
1.0
  9
$CHAMFERD
 40
0.0
  9
$SKPOLY
 70
     0
  9
$TDCREATE
 40
2451380.847099063
  9
$TDUCREATE
 40
2451380.805432396
  9
$TDUPDATE
 40
2451380.882847222
  9
$TDUUPDATE
 40
2451380.841180556
  9
$TDINDWG
 40
0.0075607870
  9
$TDUSRTIMER
 40
0.0075517477
  9
$USRTIMER
 70
     1
  9
$ANGBASE
 50
0.0
  9
$ANGDIR
 70
     0
  9
$PDMODE
 70
     0
  9
$PDSIZE
 40
0.0
  9
$PLINEWID
 40
0.0
  9
$SPLFRAME
 70
     0
  9
$SPLINETYPE
 70
     6
  9
$SPLINESEGS
 70
     8
  9
$HANDSEED
  5
65D
  9
$SURFTAB1
 70
     6
  9
$SURFTAB2
 70
     6
  9
$SURFTYPE
 70
     6
  9
$SURFU
 70
     6
  9
$SURFV
 70
     6
  9
$UCSBASE
  2

  9
$UCSNAME
  2

  9
$UCSORG
 10
0.0
 20
0.0
 30
0.0
  9
$UCSXDIR
 10
1.0
 20
0.0
 30
0.0
  9
$UCSYDIR
 10
0.0
 20
1.0
 30
0.0
  9
$UCSORTHOREF
  2

  9
$UCSORTHOVIEW
 70
     0
  9
$UCSORGTOP
 10
0.0
 20
0.0
 30
0.0
  9
$UCSORGBOTTOM
 10
0.0
 20
0.0
 30
0.0
  9
$UCSORGLEFT
 10
0.0
 20
0.0
 30
0.0
  9
$UCSORGRIGHT
 10
0.0
 20
0.0
 30
0.0
  9
$UCSORGFRONT
 10
0.0
 20
0.0
 30
0.0
  9
$UCSORGBACK
 10
0.0
 20
0.0
 30
0.0
  9
$PUCSBASE
  2

  9
$PUCSNAME
  2

  9
$PUCSORG
 10
0.0
 20
0.0
 30
0.0
  9
$PUCSXDIR
 10
1.0
 20
0.0
 30
0.0
  9
$PUCSYDIR
 10
0.0
 20
1.0
 30
0.0
  9
$PUCSORTHOREF
  2

  9
$PUCSORTHOVIEW
 70
     0
  9
$PUCSORGTOP
 10
0.0
 20
0.0
 30
0.0
  9
$PUCSORGBOTTOM
 10
0.0
 20
0.0
 30
0.0
  9
$PUCSORGLEFT
 10
0.0
 20
0.0
 30
0.0
  9
$PUCSORGRIGHT
 10
0.0
 20
0.0
 30
0.0
  9
$PUCSORGFRONT
 10
0.0
 20
0.0
 30
0.0
  9
$PUCSORGBACK
 10
0.0
 20
0.0
 30
0.0
  9
$USERI1
 70
     0
  9
$USERI2
 70
     0
  9
$USERI3
 70
     0
  9
$USERI4
 70
     0
  9
$USERI5
 70
     0
  9
$USERR1
 40
0.0
  9
$USERR2
 40
0.0
  9
$USERR3
 40
0.0
  9
$USERR4
 40
0.0
  9
$USERR5
 40
0.0
  9
$WORLDVIEW
 70
     1
  9
$SHADEDGE
 70
     3
  9
$SHADEDIF
 70
    70
  9
$TILEMODE
 70
     1
  9
$MAXACTVP
 70
    64
  9
$PINSBASE
 10
0.0
 20
0.0
 30
0.0
  9
$PLIMCHECK
 70
     0
  9
$PEXTMIN
 10
1.000000000000000E+20
 20
1.000000000000000E+20
 30
1.000000000000000E+20
  9
$PEXTMAX
 10
-1.000000000000000E+20
 20
-1.000000000000000E+20
 30
-1.000000000000000E+20
  9
$PLIMMIN
 10
0.0
 20
0.0
  9
$PLIMMAX
 10
12.0
 20
9.0
  9
$UNITMODE
 70
     0
  9
$VISRETAIN
 70
     1
  9
$PLINEGEN
 70
     0
  9
$PSLTSCALE
 70
     1
  9
$TREEDEPTH
 70
  3020
  9
$CMLSTYLE
  2
Standard
  9
$CMLJUST
 70
     0
  9
$CMLSCALE
 40
1.0
  9
$PROXYGRAPHICS
 70
     1
  9
$MEASUREMENT
 70
     0
  9
$CELWEIGHT
370
    -1
  9
$ENDCAPS
280
     0
  9
$JOINSTYLE
280
     0
  9
$LWDISPLAY
290
     0
  9
$INSUNITS
 70
     1
  9
$HYPERLINKBASE
  1

  9
$STYLESHEET
  1

  9
$XEDIT
290
     1
  9
$CEPSNTYPE
380
     0
  9
$PSTYLEMODE
290
     1
  9
$FINGERPRINTGUID
  2
{12F50282-3ED8-11D3-A8B7-0060B0F84BC6}
  9
$VERSIONGUID
  2
{12F50293-3ED8-11D3-A8B7-0060B0F84BC6}
  9
$EXTNAMES
290
     1
  9
$PSVPSCALE
 40
0.0
  9
$OLESTARTUP
290
     0
  0
ENDSEC
  0
SECTION
  2
CLASSES
  0
CLASS
  1
ACDBDICTIONARYWDFLT
  2
AcDbDictionaryWithDefault
  3
ObjectDBX Classes
 90
        0
280
     0
281
     0
  0
CLASS
  1
ACDBPLACEHOLDER
  2
AcDbPlaceHolder
  3
ObjectDBX Classes
 90
        0
280
     0
281
     0
  0
CLASS
  1
LAYOUT
  2
AcDbLayout
  3
ObjectDBX Classes
 90
        0
280
     0
281
     0
  0
CLASS
  1
MATERIAL
  2
AcDbMaterial
  3
ObjectDBX Classes
 90
     1153
280
     0
281
     0
  0
CLASS
  1
VISUALSTYLE
  2
AcDbVisualStyle
  3
ObjectDBX Classes
 90
     4095
280
     0
281
     0
  0
CLASS
  1
TABLESTYLE
  2
AcDbTableStyle
  3
ObjectDBX Classes
 90
     4095
280
     0
281
     0
  0
CLASS
  1
SCALE
  2
AcDbScale
  3
ObjectDBX Classes
 90
     1153
280
     0
281
     0
  0
CLASS
  1
MLEADERSTYLE
  2
AcDbMLeaderStyle
  3
ACDB_MLEADERSTYLE_CLASS
 90
     4095
280
     0
281
     0
  0
CLASS
  1
DICTIONARYVAR
  2
AcDbDictionaryVar
  3
ObjectDBX Classes
 90
        0
280
     0
281
     0
  0
CLASS
  1
CELLSTYLEMAP
  2
AcDbCellStyleMap
  3
ObjectDBX Classes
 90
     1152
280
     0
281
     0
  0
ENDSEC
  0
SECTION
  2
TABLES
  0
TABLE
  2
VPORT
  5
8
330
0
100
AcDbSymbolTable
 70
     1
  0
VPORT
  5
A8
330
8
100
AcDbSymbolTableRecord
100
AcDbViewportTableRecord
  2
*Active
 70
     0
 10
0.0
 20
0.0
 11
1.0
 21
1.0
 12
102.4624557495117
 22
-21.53798294067383
 13
0.0
 23
0.0
 14
0.5
 24
0.5
 15
0.5
 25
0.5
 16
-1.0
 26
-1.0
 36
1.0
 17
0.0
 27
0.0
 37
0.0
 40
290.7429275452107
 41
1.39248314602333
 42
50.0
 43
0.0
 44
0.0
 50
0.0
 51
0.0
 71
     0
 72
   100
 73
     1
 74
     3
 75
     0
 76
     0
 77
     0
 78
     0
281
     0
 65
     1
110
0.0
120
0.0
130
0.0
111
1.0
121
0.0
131
0.0
112
0.0
122
1.0
132
0.0
 79
     0
146
0.0
  0
ENDTAB
  0
TABLE
  2
LTYPE
  5
5
330
0
100
AcDbSymbolTable
 70
     1
  0
LTYPE
  5
14
330
5
100
AcDbSymbolTableRecord
100
AcDbLinetypeTableRecord
  2
ByBlock
 70
     0
  3

 72
    65
 73
     0
 40
0.0
  0
LTYPE
  5
15
330
5
100
AcDbSymbolTableRecord
100
AcDbLinetypeTableRecord
  2
ByLayer
 70
     0
  3

 72
    65
 73
     0
 40
0.0
  0
LTYPE
  5
16
330
5
100
AcDbSymbolTableRecord
100
AcDbLinetypeTableRecord
  2
Continuous
 70
     0
  3
Solid line
 72
    65
 73
     0
 40
0.0
  0
ENDTAB
  0
TABLE
  2
LAYER
  5
2
330
0
100
AcDbSymbolTable
 70
     2
  0
LAYER
  5
10
330
2
100
AcDbSymbolTableRecord
100
AcDbLayerTableRecord
  2
0
 70
     0
 62
   151
  6
Continuous
370
    -3
390
F
  0
LAYER
  5
2B
330
2
100
AcDbSymbolTableRecord
100
AcDbLayerTableRecord
  2
ASHADE
 70
     4
 62
     7
  6
Continuous
370
    -3
390
2D
  0
ENDTAB
  0
TABLE
  2
STYLE
  5
3
330
0
100
AcDbSymbolTable
 70
     2
  0
STYLE
  5
11
330
3
100
AcDbSymbolTableRecord
100
AcDbTextStyleTableRecord
  2
Standard
 70
     0
 40
0.0
 41
1.0
 50
0.0
 71
     0
 42
0.2
  3
txt
  4

  0
STYLE
  5
2C
330
3
100
AcDbSymbolTableRecord
100
AcDbTextStyleTableRecord
  2
ASHADE
 70
     0
 40
0.2
 41
1.0
 50
0.0
 71
     0
 42
0.2
  3
simplex
  4

  0
ENDTAB
  0
TABLE
  2
VIEW
  5
6
330
0
100
AcDbSymbolTable
 70
     0
  0
ENDTAB
  0
TABLE
  2
UCS
  5
7
330
0
100
AcDbSymbolTable
 70
     0
  0
ENDTAB
  0
TABLE
  2
APPID
  5
9
330
0
100
AcDbSymbolTable
 70
     7
  0
APPID
  5
12
330
9
100
AcDbSymbolTableRecord
100
AcDbRegAppTableRecord
  2
ACAD
 70
     0
  0
APPID
  5
8F
330
9
100
AcDbSymbolTableRecord
100
AcDbRegAppTableRecord
  2
AVE_RENDER
 70
     0
  0
APPID
  5
90
330
9
100
AcDbSymbolTableRecord
100
AcDbRegAppTableRecord
  2
AVE_ENTITY_MATERIAL
 70
     0
  0
APPID
  5
9C
330
9
100
AcDbSymbolTableRecord
100
AcDbRegAppTableRecord
  2
AVE_FINISH
 70
     0
  0
APPID
  5
9D
330
9
100
AcDbSymbolTableRecord
100
AcDbRegAppTableRecord
  2
AVE_MATERIAL
 70
     0
  0
APPID
  5
9E
330
9
100
AcDbSymbolTableRecord
100
AcDbRegAppTableRecord
  2
AVE_GLOBAL
 70
     0
  0
APPID
  5
FB
330
9
100
AcDbSymbolTableRecord
100
AcDbRegAppTableRecord
  2
ACAD_MLEADERVER
 70
     0
  0
ENDTAB
  0
TABLE
  2
DIMSTYLE
  5
A
330
0
100
AcDbSymbolTable
 70
     1
100
AcDbDimStyleTable
 71
     0
  0
DIMSTYLE
105
27
330
A
100
AcDbSymbolTableRecord
100
AcDbDimStyleTableRecord
  2
Standard
 70
     0
340
11
  0
ENDTAB
  0
TABLE
  2
BLOCK_RECORD
  5
1
330
0
100
AcDbSymbolTable
 70
     6
  0
BLOCK_RECORD
  5
1F
330
1
100
AcDbSymbolTableRecord
100
AcDbBlockTableRecord
  2
*Model_Space
340
22
  0
BLOCK_RECORD
  5
1B
330
1
100
AcDbSymbolTableRecord
100
AcDbBlockTableRecord
  2
*Paper_Space
340
1E
  0
BLOCK_RECORD
  5
23
330
1
100
AcDbSymbolTableRecord
100
AcDbBlockTableRecord
  2
*Paper_Space0
340
26
  0
BLOCK_RECORD
  5
2E
330
1
100
AcDbSymbolTableRecord
100
AcDbBlockTableRecord
  2
direct
340
0
  0
BLOCK_RECORD
  5
42
330
1
100
AcDbSymbolTableRecord
100
AcDbBlockTableRecord
  2
overhead
340
0
  0
BLOCK_RECORD
  5
5F
330
1
100
AcDbSymbolTableRecord
100
AcDbBlockTableRecord
  2
sh_spot
340
0
  0
BLOCK_RECORD
  5
91
330
1
100
AcDbSymbolTableRecord
100
AcDbBlockTableRecord
  2
AVE_RENDER
340
0
102
{BLKREFS
331
94
331
95
331
96
331
97
331
98
331
99
331
9A
331
9B
102
}
  0
BLOCK_RECORD
  5
9F
330
1
100
AcDbSymbolTableRecord
100
AcDbBlockTableRecord
  2
AVE_GLOBAL
340
0
102
{BLKREFS
331
A2
102
}
  0
ENDTAB
  0
ENDSEC
  0
SECTION
  2
BLOCKS
  0
BLOCK
  5
20
330
1F
100
AcDbEntity
  8
0
100
AcDbBlockBegin
  2
*Model_Space
 70
     0
 10
0.0
 20
0.0
 30
0.0
  3
*Model_Space
  1

  0
ENDBLK
  5
21
330
1F
100
AcDbEntity
  8
0
100
AcDbBlockEnd
  0
BLOCK
  5
1C
330
1B
100
AcDbEntity
 67
     1
  8
0
100
AcDbBlockBegin
  2
*Paper_Space
 70
     0
 10
0.0
 20
0.0
 30
0.0
  3
*Paper_Space
  1

  0
ENDBLK
  5
1D
330
1B
100
AcDbEntity
 67
     1
  8
0
100
AcDbBlockEnd
  0
BLOCK
  5
24
330
23
100
AcDbEntity
 67
     1
  8
0
100
AcDbBlockBegin
  2
*Paper_Space0
 70
     0
 10
0.0
 20
0.0
 30
0.0
  3
*Paper_Space0
  1

  0
ENDBLK
  5
25
330
23
100
AcDbEntity
 67
     1
  8
0
100
AcDbBlockEnd
  0
BLOCK
  5
40
330
2E
100
AcDbEntity
  8
0
100
AcDbBlockBegin
  2
direct
 70
     2
 10
0.0
 20
0.0
 30
0.0
  3
direct
  1

  0
ATTDEF
  5
2F
330
2E
100
AcDbEntity
  8
ASHADE
  6
Continuous
 62
     1
100
AcDbText
 10
0.0
 20
-0.1
 30
0.0
 40
0.2
  1

  7
ASHADE
 72
     1
 11
0.0
 21
-0.1
 31
0.0
100
AcDbAttributeDefinition
  3
Light Name
  2
SNAME
 70
     0
  0
ARC
  5
30
330
2E
100
AcDbEntity
  8
ASHADE
  6
Continuous
 62
     7
100
AcDbCircle
 10
0.0
 20
0.0
 30
0.0
 40
0.3
100
AcDbArc
 50
205.6792886194569
 51
334.3207113805431
  0
ARC
  5
31
330
2E
100
AcDbEntity
  8
ASHADE
  6
Continuous
 62
     7
100
AcDbCircle
 10
0.0
 20
0.0
 30
0.0
 40
0.3
100
AcDbArc
 50
25.67928861945685
 51
154.3207113805431
  0
LINE
  5
32
330
2E
100
AcDbEntity
  8
ASHADE
  6
Continuous
 62
     7
100
AcDbLine
 10
-0.21
 20
0.2142428528562855
 30
0.0
 11
-0.21
 21
0.5
 31
0.0
  0
LINE
  5
33
330
2E
100
AcDbEntity
  8
ASHADE
  6
Continuous
 62
     7
100
AcDbLine
 10
-0.11
 20
0.2791057147390572
 30
0.0
 11
-0.11
 21
0.5
 31
0.0
  0
LINE
  5
34
330
2E
100
AcDbEntity
  8
ASHADE
  6
Continuous
 62
     7
100
AcDbLine
 10
0.21
 20
0.2142428528562855
 30
0.0
 11
0.21
 21
0.5
 31
0.0
  0
ATTDEF
  5
35
330
2E
100
AcDbEntity
  8
ASHADE
  6
Continuous
 62
     7
100
AcDbText
 10
0.0
 20
0.25
 30
0.0
 40
0.01
  1

100
AcDbAttributeDefinition
  3
Look-at Y
  2
LAY
 70
     1
  0
ATTDEF
  5
36
330
2E
100
AcDbEntity
  8
ASHADE
  6
Continuous
 62
     7
100
AcDbText
 10
0.0
 20
0.22
 30
0.0
 40
0.01
  1
1
100
AcDbAttributeDefinition
  3
Light Intensity
  2
INTENSITY
 70
     1
  0
ATTDEF
  5
37
330
2E
100
AcDbEntity
  8
ASHADE
  6
Continuous
 62
     7
100
AcDbText
 10
0.0
 20
0.16
 30
0.0
 40
0.01
  1
-1
100
AcDbAttributeDefinition
  3
*not used*
  2
BEAMD
 70
     1
  0
ATTDEF
  5
38
330
2E
100
AcDbEntity
  8
ASHADE
  6
Continuous
 62
     7
100
AcDbText
 10
0.0
 20
0.175
 30
0.0
 40
0.01
  1
-1
100
AcDbAttributeDefinition
  3
*not used*
  2
CONED
 70
     1
  0
ATTDEF
  5
39
330
2E
100
AcDbEntity
  8
ASHADE
  6
Continuous
 62
     7
100
AcDbText
 10
0.0
 20
0.19
 30
0.0
 40
0.01
  1
0
100
AcDbAttributeDefinition
  3
Depth Map Size
  2
CONEA
 70
     1
  0
ATTDEF
  5
3A
330
2E
100
AcDbEntity
  8
ASHADE
  6
Continuous
 62
     7
100
AcDbText
 10
0.0
 20
0.2050000000000001
 30
0.0
 40
0.01
  1
1,1,1
100
AcDbAttributeDefinition
  3
Light Color (RGB)
  2
COLOR
 70
     1
  0
ATTDEF
  5
3B
330
2E
100
AcDbEntity
  8
ASHADE
  6
Continuous
 62
     7
100
AcDbText
 10
0.0
 20
0.235
 30
0.0
 40
0.01
  1

100
AcDbAttributeDefinition
  3
Look-at Z
  2
LAZ
 70
     1
  0
LINE
  5
3C
330
2E
100
AcDbEntity
  8
ASHADE
  6
Continuous
 62
     7
100
AcDbLine
 10
0.0
 20
0.3
 30
0.0
 11
0.0
 21
0.5
 31
0.0
  0
LINE
  5
3D
330
2E
100
AcDbEntity
  8
ASHADE
  6
Continuous
 62
     7
100
AcDbLine
 10
0.11
 20
0.2791057147390572
 30
0.0
 11
0.11
 21
0.5
 31
0.0
  0
ATTDEF
  5
3E
330
2E
100
AcDbEntity
  8
ASHADE
  6
Continuous
 62
     7
100
AcDbText
 10
0.0
 20
0.265
 30
0.0
 40
0.01
  1

100
AcDbAttributeDefinition
  3
Look-at X
  2
LAX
 70
     1
  0
ATTDEF
  5
3F
330
2E
100
AcDbEntity
  8
ASHADE
  6
Continuous
 62
     7
100
AcDbText
 10
0.0
 20
0.28
 30
0.0
 40
0.01
  1

100
AcDbAttributeDefinition
  3

  2
GNAME
 70
     1
  0
ENDBLK
  5
41
330
2E
100
AcDbEntity
  8
0
100
AcDbBlockEnd
  0
BLOCK
  5
5D
330
42
100
AcDbEntity
  8
0
100
AcDbBlockBegin
  2
overhead
 70
     2
 10
0.0
 20
0.0
 30
0.0
  3
overhead
  1

  0
ATTDEF
  5
43
330
42
100
AcDbEntity
  8
ASHADE
  6
Continuous
 62
     1
100
AcDbText
 10
0.0
 20
-0.1
 30
0.0
 40
0.2
  1

  7
ASHADE
 72
     1
 11
0.0
 21
-0.1
 31
0.0
100
AcDbAttributeDefinition
  3
Light Name
  2
SNAME
 70
     0
  0
ARC
  5
44
330
42
100
AcDbEntity
  8
ASHADE
  6
Continuous
 62
     7
100
AcDbCircle
 10
0.0
 20
0.0
 30
0.0
 40
0.3
100
AcDbArc
 50
205.6792886194569
 51
334.3207113805431
  0
LINE
  5
45
330
42
100
AcDbEntity
  8
ASHADE
  6
Continuous
 62
     7
100
AcDbLine
 10
-0.2041413561583015
 20
-0.2198324514393848
 30
0.0
 11
-0.2721884748777353
 21
-0.2931099352525131
 31
0.0
  0
LINE
  5
46
330
42
100
AcDbEntity
  8
ASHADE
  6
Continuous
 62
     7
100
AcDbLine
 10
-0.1096591641591904
 20
-0.2792398032442862
 30
0.0
 11
-0.1279356915190555
 21
-0.3257797704516673
 31
0.0
  0
LINE
  5
47
330
42
100
AcDbEntity
  8
ASHADE
  6
Continuous
 62
     7
100
AcDbLine
 10
0.0
 20
-0.2999999999999999
 30
0.0
 11
0.0
 21
-0.4
 31
0.0
  0
LINE
  5
48
330
42
100
AcDbEntity
  8
ASHADE
  6
Continuous
 62
     7
100
AcDbLine
 10
0.1096591641591904
 20
-0.2792398032442862
 30
0.0
 11
0.1279356915190555
 21
-0.3257797704516673
 31
0.0
  0
LINE
  5
49
330
42
100
AcDbEntity
  8
ASHADE
  6
Continuous
 62
     7
100
AcDbLine
 10
0.2041413561583015
 20
-0.2198324514393848
 30
0.0
 11
0.2721884748777353
 21
-0.2931099352525131
 31
0.0
  0
ARC
  5
4A
330
42
100
AcDbEntity
  8
ASHADE
  6
Continuous
 62
     7
100
AcDbCircle
 10
0.0
 20
0.0
 30
0.0
 40
0.3
100
AcDbArc
 50
25.67928861945685
 51
154.3207113805431
  0
LINE
  5
4B
330
42
100
AcDbEntity
  8
ASHADE
  6
Continuous
 62
     7
100
AcDbLine
 10
-0.2703701166919155
 20
0.13
 30
0.0
 11
-0.3154318028072347
 21
0.1516666666666666
 31
0.0
  0
LINE
  5
4C
330
42
100
AcDbEntity
  8
ASHADE
  6
Continuous
 62
     7
100
AcDbLine
 10
-0.2703701166919155
 20
-0.13
 30
0.0
 11
-0.3154318028072347
 21
-0.1516666666666666
 31
0.0
  0
LINE
  5
4D
330
42
100
AcDbEntity
  8
ASHADE
  6
Continuous
 62
     7
100
AcDbLine
 10
-0.2041413561583015
 20
0.2198324514393849
 30
0.0
 11
-0.2721884748777353
 21
0.2931099352525131
 31
0.0
  0
LINE
  5
4E
330
42
100
AcDbEntity
  8
ASHADE
  6
Continuous
 62
     7
100
AcDbLine
 10
-0.1096591641591904
 20
0.2792398032442862
 30
0.0
 11
-0.1279356915190555
 21
0.3257797704516674
 31
0.0
  0
LINE
  5
4F
330
42
100
AcDbEntity
  8
ASHADE
  6
Continuous
 62
     7
100
AcDbLine
 10
0.2703701166919155
 20
-0.13
 30
0.0
 11
0.3154318028072347
 21
-0.1516666666666666
 31
0.0
  0
LINE
  5
50
330
42
100
AcDbEntity
  8
ASHADE
  6
Continuous
 62
     7
100
AcDbLine
 10
0.2703701166919155
 20
0.13
 30
0.0
 11
0.3154318028072347
 21
0.1516666666666666
 31
0.0
  0
LINE
  5
51
330
42
100
AcDbEntity
  8
ASHADE
  6
Continuous
 62
     7
100
AcDbLine
 10
0.0
 20
0.3
 30
0.0
 11
0.0
 21
0.4
 31
0.0
  0
ATTDEF
  5
52
330
42
100
AcDbEntity
  8
ASHADE
  6
Continuous
 62
     7
100
AcDbText
 10
0.0
 20
0.22
 30
0.0
 40
0.01
  1
1
100
AcDbAttributeDefinition
  3
Light Intensity
  2
INTENSITY
 70
     1
  0
ATTDEF
  5
53
330
42
100
AcDbEntity
  8
ASHADE
  6
Continuous
 62
     7
100
AcDbText
 10
0.0
 20
0.16
 30
0.0
 40
0.01
  1
-1
100
AcDbAttributeDefinition
  3
*not used*
  2
BEAMD
 70
     1
  0
ATTDEF
  5
54
330
42
100
AcDbEntity
  8
ASHADE
  6
Continuous
 62
     7
100
AcDbText
 10
0.0
 20
0.175
 30
0.0
 40
0.01
  1
-1
100
AcDbAttributeDefinition
  3
*not used*
  2
CONED
 70
     1
  0
ATTDEF
  5
55
330
42
100
AcDbEntity
  8
ASHADE
  6
Continuous
 62
     7
100
AcDbText
 10
0.0
 20
0.19
 30
0.0
 40
0.01
  1
0
100
AcDbAttributeDefinition
  3
Depth Map Size
  2
CONEA
 70
     1
  0
ATTDEF
  5
56
330
42
100
AcDbEntity
  8
ASHADE
  6
Continuous
 62
     7
100
AcDbText
 10
0.0
 20
0.2050000000000001
 30
0.0
 40
0.01
  1
1,1,1
100
AcDbAttributeDefinition
  3
Light Color (RGB)
  2
COLOR
 70
     1
  0
ATTDEF
  5
57
330
42
100
AcDbEntity
  8
ASHADE
  6
Continuous
 62
     7
100
AcDbText
 10
0.0
 20
0.235
 30
0.0
 40
0.01
  1

100
AcDbAttributeDefinition
  3
Look-at Z
  2
LAZ
 70
     1
  0
ATTDEF
  5
58
330
42
100
AcDbEntity
  8
ASHADE
  6
Continuous
 62
     7
100
AcDbText
 10
0.0
 20
0.25
 30
0.0
 40
0.01
  1

100
AcDbAttributeDefinition
  3
Look-at Y
  2
LAY
 70
     1
  0
ATTDEF
  5
59
330
42
100
AcDbEntity
  8
ASHADE
  6
Continuous
 62
     7
100
AcDbText
 10
0.0
 20
0.265
 30
0.0
 40
0.01
  1

100
AcDbAttributeDefinition
  3
Look-at X
  2
LAX
 70
     1
  0
ATTDEF
  5
5A
330
42
100
AcDbEntity
  8
ASHADE
  6
Continuous
 62
     7
100
AcDbText
 10
0.0
 20
0.28
 30
0.0
 40
0.01
  1

100
AcDbAttributeDefinition
  3

  2
GNAME
 70
     1
  0
LINE
  5
5B
330
42
100
AcDbEntity
  8
ASHADE
  6
Continuous
 62
     7
100
AcDbLine
 10
0.1096591641591904
 20
0.2792398032442862
 30
0.0
 11
0.1279356915190555
 21
0.3257797704516674
 31
0.0
  0
LINE
  5
5C
330
42
100
AcDbEntity
  8
ASHADE
  6
Continuous
 62
     7
100
AcDbLine
 10
0.2041413561583015
 20
0.2198324514393849
 30
0.0
 11
0.2721884748777353
 21
0.2931099352525131
 31
0.0
  0
ENDBLK
  5
5E
330
42
100
AcDbEntity
  8
0
100
AcDbBlockEnd
  0
BLOCK
  5
85
330
5F
100
AcDbEntity
  8
0
100
AcDbBlockBegin
  2
sh_spot
 70
     2
 10
0.0
 20
0.0
 30
0.0
  3
sh_spot
  1

  0
LINE
  5
60
330
5F
100
AcDbEntity
  8
ASHADE
  6
Continuous
 62
     7
100
AcDbLine
 10
0.25
 20
0.26
 30
0.0
 11
-0.25
 21
0.26
 31
0.0
  0
LINE
  5
61
330
5F
100
AcDbEntity
  8
ASHADE
  6
Continuous
 62
     7
100
AcDbLine
 10
-0.25
 20
-0.3399999999999999
 30
0.0
 11
0.25
 21
-0.3399999999999999
 31
0.0
  0
ATTDEF
  5
62
330
5F
100
AcDbEntity
  8
ASHADE
  6
Continuous
 62
     1
100
AcDbText
 10
0.0
 20
-0.1
 30
0.0
 40
0.2
  1

  7
ASHADE
 72
     1
 11
0.0
 21
-0.1
 31
0.0
100
AcDbAttributeDefinition
  3
Light Name
  2
SNAME
 70
     0
  0
LINE
  5
63
330
5F
100
AcDbEntity
  8
ASHADE
  6
Continuous
 62
     7
100
AcDbLine
 10
-0.25
 20
-0.13
 30
0.0
 11
-0.25
 21
-0.3399999999999999
 31
0.0
  0
LINE
  5
64
330
5F
100
AcDbEntity
  8
ASHADE
  6
Continuous
 62
     7
100
AcDbLine
 10
-0.25
 20
-0.18
 30
0.0
 11
-0.29
 21
-0.18
 31
0.0
  0
LINE
  5
65
330
5F
100
AcDbEntity
  8
ASHADE
  6
Continuous
 62
     7
100
AcDbLine
 10
-0.29
 20
-0.22
 30
0.0
 11
-0.25
 21
-0.22
 31
0.0
  0
LINE
  5
66
330
5F
100
AcDbEntity
  8
ASHADE
  6
Continuous
 62
     7
100
AcDbLine
 10
-0.29
 20
-0.18
 30
0.0
 11
-0.29
 21
-0.22
 31
0.0
  0
LINE
  5
67
330
5F
100
AcDbEntity
  8
ASHADE
  6
Continuous
 62
     7
100
AcDbLine
 10
-0.1045454545454545
 20
0.26
 30
0.0
 11
-0.15
 21
0.46
 31
0.0
  0
LINE
  5
68
330
5F
100
AcDbEntity
  8
ASHADE
  6
Continuous
 62
     7
100
AcDbLine
 10
-0.21
 20
0.26
 30
0.0
 11
-0.301304347826087
 21
0.46
 31
0.0
  0
LINE
  5
69
330
5F
100
AcDbEntity
  8
ASHADE
  6
Continuous
 62
     7
100
AcDbLine
 10
-0.25
 20
0.26
 30
0.0
 11
-0.25
 21
0.13
 31
0.0
  0
LINE
  5
6A
330
5F
100
AcDbEntity
  8
ASHADE
  6
Continuous
 62
     7
100
AcDbLine
 10
-0.25
 20
0.22
 30
0.0
 11
-0.29
 21
0.22
 31
0.0
  0
LINE
  5
6B
330
5F
100
AcDbEntity
  8
ASHADE
  6
Continuous
 62
     7
100
AcDbLine
 10
-0.29
 20
0.1799999999999999
 30
0.0
 11
-0.25
 21
0.1799999999999999
 31
0.0
  0
LINE
  5
6C
330
5F
100
AcDbEntity
  8
ASHADE
  6
Continuous
 62
     7
100
AcDbLine
 10
-0.29
 20
0.22
 30
0.0
 11
-0.29
 21
0.1799999999999999
 31
0.0
  0
ATTDEF
  5
6D
330
5F
100
AcDbEntity
  8
ASHADE
  6
Continuous
 62
     7
100
AcDbText
 10
0.0
 20
-0.24
 30
0.0
 40
0.01
  1
0
100
AcDbAttributeDefinition
  3
Depth Map Size
  2
ZSIZE
 70
     1
  0
ATTDEF
  5
6E
330
5F
100
AcDbEntity
  8
ASHADE
  6
Continuous
 62
     7
100
AcDbText
 10
0.0
 20
-0.3300000000000001
 30
0.0
 40
0.01
  1
0,0,0
100
AcDbAttributeDefinition
  3
Look-from XYZ
  2
LFXYZ
 70
     1
  0
ATTDEF
  5
6F
330
5F
100
AcDbEntity
  8
ASHADE
  6
Continuous
 62
     7
100
AcDbText
 10
0.0
 20
-0.315
 30
0.0
 40
0.01
  1
0.0
100
AcDbAttributeDefinition
  3
Beam Distribution
  2
BEAMDI
 70
     1
  0
ATTDEF
  5
70
330
5F
100
AcDbEntity
  8
ASHADE
  6
Continuous
 62
     7
100
AcDbText
 10
0.0
 20
-0.3
 30
0.0
 40
0.01
  1
0.0
100
AcDbAttributeDefinition
  3
Cone Delta
  2
CONEDE
 70
     1
  0
ATTDEF
  5
71
330
5F
100
AcDbEntity
  8
ASHADE
  6
Continuous
 62
     7
100
AcDbText
 10
0.0
 20
-0.2850000000000001
 30
0.0
 40
0.01
  1
10.0
100
AcDbAttributeDefinition
  3
Cone Angle
  2
CONEAN
 70
     1
  0
ATTDEF
  5
72
330
5F
100
AcDbEntity
  8
ASHADE
  6
Continuous
 62
     7
100
AcDbText
 10
0.0
 20
-0.27
 30
0.0
 40
0.01
  1
-1
100
AcDbAttributeDefinition
  3
*not used*
  2
BIASMAX
 70
     1
  0
ATTDEF
  5
73
330
5F
100
AcDbEntity
  8
ASHADE
  6
Continuous
 62
     7
100
AcDbText
 10
0.0
 20
-0.255
 30
0.0
 40
0.01
  1
-1
100
AcDbAttributeDefinition
  3
*not used*
  2
BIASMIN
 70
     1
  0
ATTDEF
  5
74
330
5F
100
AcDbEntity
  8
ASHADE
  6
Continuous
 62
     7
100
AcDbText
 10
0.0
 20
-0.225
 30
0.0
 40
0.01
  1
1,1,1
100
AcDbAttributeDefinition
  3
Light Color (RGB)
  2
COLOR
 70
     1
  0
ATTDEF
  5
75
330
5F
100
AcDbEntity
  8
ASHADE
  6
Continuous
 62
     7
100
AcDbText
 10
0.0
 20
-0.21
 30
0.0
 40
0.01
  1
1
100
AcDbAttributeDefinition
  3
Light Intensity
  2
INTENSITY
 70
     1
  0
ATTDEF
  5
76
330
5F
100
AcDbEntity
  8
ASHADE
  6
Continuous
 62
     7
100
AcDbText
 10
0.0
 20
-0.15
 30
0.0
 40
0.01
  1

100
AcDbAttributeDefinition
  3

  2
GNAME
 70
     1
  0
ATTDEF
  5
77
330
5F
100
AcDbEntity
  8
ASHADE
  6
Continuous
 62
     7
100
AcDbText
 10
0.0
 20
-0.195
 30
0.0
 40
0.01
  1

100
AcDbAttributeDefinition
  3
Look-at Z
  2
LAZ
 70
     1
  0
ATTDEF
  5
78
330
5F
100
AcDbEntity
  8
ASHADE
  6
Continuous
 62
     7
100
AcDbText
 10
0.0
 20
-0.18
 30
0.0
 40
0.01
  1

100
AcDbAttributeDefinition
  3
Look-at Y
  2
LAY
 70
     1
  0
ATTDEF
  5
79
330
5F
100
AcDbEntity
  8
ASHADE
  6
Continuous
 62
     7
100
AcDbText
 10
0.0
 20
-0.165
 30
0.0
 40
0.01
  1

100
AcDbAttributeDefinition
  3
Look-at X
  2
LAX
 70
     1
  0
LINE
  5
7A
330
5F
100
AcDbEntity
  8
ASHADE
  6
Continuous
 62
     7
100
AcDbLine
 10
0.25
 20
-0.3399999999999999
 30
0.0
 11
0.25
 21
-0.13
 31
0.0
  0
LINE
  5
7B
330
5F
100
AcDbEntity
  8
ASHADE
  6
Continuous
 62
     7
100
AcDbLine
 10
0.25
 20
-0.18
 30
0.0
 11
0.29
 21
-0.18
 31
0.0
  0
LINE
  5
7C
330
5F
100
AcDbEntity
  8
ASHADE
  6
Continuous
 62
     7
100
AcDbLine
 10
0.29
 20
-0.22
 30
0.0
 11
0.25
 21
-0.22
 31
0.0
  0
LINE
  5
7D
330
5F
100
AcDbEntity
  8
ASHADE
  6
Continuous
 62
     7
100
AcDbLine
 10
0.29
 20
-0.18
 30
0.0
 11
0.29
 21
-0.22
 31
0.0
  0
LINE
  5
7E
330
5F
100
AcDbEntity
  8
ASHADE
  6
Continuous
 62
     7
100
AcDbLine
 10
0.21
 20
0.26
 30
0.0
 11
0.301304347826087
 21
0.46
 31
0.0
  0
LINE
  5
7F
330
5F
100
AcDbEntity
  8
ASHADE
  6
Continuous
 62
     7
100
AcDbLine
 10
0.1045454545454545
 20
0.26
 30
0.0
 11
0.15
 21
0.46
 31
0.0
  0
LINE
  5
80
330
5F
100
AcDbEntity
  8
ASHADE
  6
Continuous
 62
     7
100
AcDbLine
 10
0.0
 20
0.26
 30
0.0
 11
0.0
 21
0.46
 31
0.0
  0
LINE
  5
81
330
5F
100
AcDbEntity
  8
ASHADE
  6
Continuous
 62
     7
100
AcDbLine
 10
0.25
 20
0.13
 30
0.0
 11
0.25
 21
0.26
 31
0.0
  0
LINE
  5
82
330
5F
100
AcDbEntity
  8
ASHADE
  6
Continuous
 62
     7
100
AcDbLine
 10
0.25
 20
0.22
 30
0.0
 11
0.29
 21
0.22
 31
0.0
  0
LINE
  5
83
330
5F
100
AcDbEntity
  8
ASHADE
  6
Continuous
 62
     7
100
AcDbLine
 10
0.29
 20
0.1799999999999999
 30
0.0
 11
0.25
 21
0.1799999999999999
 31
0.0
  0
LINE
  5
84
330
5F
100
AcDbEntity
  8
ASHADE
  6
Continuous
 62
     7
100
AcDbLine
 10
0.29
 20
0.22
 30
0.0
 11
0.29
 21
0.1799999999999999
 31
0.0
  0
ENDBLK
  5
86
330
5F
100
AcDbEntity
  8
0
100
AcDbBlockEnd
  0
BLOCK
  5
92
330
91
100
AcDbEntity
  8
ASHADE
100
AcDbBlockBegin
  2
AVE_RENDER
 70
     0
 10
0.0
 20
0.0
 30
0.0
  3
AVE_RENDER
  1
AVE_RENDER
  0
ENDBLK
  5
93
330
91
100
AcDbEntity
  8
0
100
AcDbBlockEnd
  0
BLOCK
  5
A0
330
9F
100
AcDbEntity
  8
ASHADE
100
AcDbBlockBegin
  2
AVE_GLOBAL
 70
     0
 10
0.0
 20
0.0
 30
0.0
  3
AVE_GLOBAL
  1
AVE_GLOBAL
  0
ENDBLK
  5
A1
330
9F
100
AcDbEntity
  8
0
100
AcDbBlockEnd
  0
ENDSEC
  0
SECTION
  2
ENTITIES
  0
INSERT
  5
94
330
1F
100
AcDbEntity
  8
ASHADE
 62
     1
100
AcDbBlockReference
  2
AVE_RENDER
 10
0.0
 20
0.0
 30
0.0
1001
AVE_RENDER
1002
{
1070
     7
1000
Pref
1070
    30
1070
    20
1070
     1
1070
     0
1000

1070
    10
1070
     1
1070
    10
1040
1.0
1070
     1
1040
0.3
1040
0.7
1040
0.0
1040
10.0
1010
-1.0
1020
-1.0
1030
-1.0
1040
0.3
1070
    49
1070
     0
1070
     0
1010
1.0
1020
1.0
1030
1.0
1040
45.0
1070
     1
1070
     0
1000
WCS
1040
0.0
1070
     0
1040
10.0
1002
}
  0
INSERT
  5
95
330
1F
100
AcDbEntity
  8
ASHADE
 62
     3
100
AcDbBlockReference
  2
AVE_RENDER
 10
0.0
 20
0.0
 30
0.0
1001
AVE_RENDER
1002
{
1070
     0
1000
Full Opt
1070
     0
1070
     1
1070
     1
1070
     1
1070
     0
1070
     0
1070
     0
1070
     1
1070
     1
1040
0.0001
1040
0.0001
1002
}
  0
INSERT
  5
96
330
1F
100
AcDbEntity
  8
ASHADE
 62
     4
100
AcDbBlockReference
  2
AVE_RENDER
 10
0.0
 20
0.0
 30
0.0
1001
AVE_RENDER
1002
{
1070
     0
1000
Quick Opt
1070
     0
1070
     1
1070
     1
1070
     1
1070
     0
1070
     0
1070
     1
1002
}
  0
INSERT
  5
97
330
1F
100
AcDbEntity
  8
ASHADE
 62
     5
100
AcDbBlockReference
  2
AVE_RENDER
 10
0.0
 20
0.0
 30
0.0
1001
AVE_RENDER
1002
{
1070
     1
1000
Scanl Opt
1070
     2
1070
     0
1070
     2
1040
2.0
1040
4.0
1070
     0
1070
     1
1070
     0
1040
0.03
1002
}
  0
INSERT
  5
98
330
1F
100
AcDbEntity
  8
ASHADE
 62
     6
100
AcDbBlockReference
  2
AVE_RENDER
 10
0.0
 20
0.0
 30
0.0
1001
AVE_RENDER
1002
{
1070
     2
1000
Raytr Opt
1070
     2
1070
     0
1070
     2
1040
2.0
1040
4.0
1070
     0
1070
     1
1070
     1
1040
0.03
1070
     3
1040
0.03
1002
}
  0
INSERT
  5
99
330
1F
100
AcDbEntity
  8
ASHADE
 62
     7
100
AcDbBlockReference
  2
AVE_RENDER
 10
0.0
 20
0.0
 30
0.0
1001
AVE_RENDER
1002
{
1070
     0
1000
RFile Opt
1070
     1
1070
   640
1070
   480
1070
 10000
1070
     1
1070
     8
1070
     8
1070
     0
1070
     0
1070
     0
1070
     0
1070
     0
1070
     0
1070
     0
1002
}
  0
INSERT
  5
9A
330
1F
100
AcDbEntity
  8
ASHADE
 62
     8
100
AcDbBlockReference
  2
AVE_RENDER
 10
0.0
 20
0.0
 30
0.0
1001
AVE_RENDER
1002
{
1070
     0
1000
Fog Opt
1070
     0
1070
     0
1040
0.0
1040
1.0
1040
0.0
1040
1.0
1010
0.5
1020
0.5
1030
0.5
1002
}
  0
INSERT
  5
9B
330
1F
100
AcDbEntity
  8
ASHADE
 62
     9
100
AcDbBlockReference
  2
AVE_RENDER
 10
0.0
 20
0.0
 30
0.0
1001
AVE_RENDER
1002
{
1070
     0
1000
BG Opt
1070
     0
1070
     1
1010
0.0
1020
0.0
1030
0.0
1010
1.0
1020
0.0
1030
0.0
1010
0.0
1020
1.0
1030
0.0
1010
0.0
1020
0.0
1030
1.0
1040
0.5
1040
0.33
1040
0.0
1000

1070
     1
1000

1070
     1
1070
     1
1040
1.0
1040
1.0
1040
0.0
1040
0.0
1070
     0
1002
}
  0
INSERT
  5
A2
330
1F
100
AcDbEntity
  8
ASHADE
 62
     1
100
AcDbBlockReference
  2
AVE_GLOBAL
 10
0.0
 20
0.0
 30
0.0
1001
AVE_MATERIAL
1002
{
1000
*GLOBAL*
1000
2
1000
Global finish.
1002
{
1002
}
1002
{
1070
    63
1002
{
1002
{
1010
-1.0
1020
-1.0
1030
-1.0
1002
}
1040
0.1000000014901161
1000

1040
0.0
1002
{
1002
}
1040
0.0
1002
{
1002
}
1040
0.0
1002
}
1002
{
1002
{
1010
-1.0
1020
-1.0
1030
-1.0
1002
}
1040
0.6999999880790711
1000

1040
0.0
1002
{
1002
}
1040
0.0
1002
{
1002
}
1040
0.0
1002
}
1002
{
1002
{
1010
-1.0
1020
-1.0
1030
-1.0
1002
}
1040
0.2000000029802322
1000

1040
0.0
1002
{
1002
}
1040
0.0
1002
{
1002
}
1040
0.0
1002
}
1002
{
1070
     0
1002
{
1070
     1
1002
{
1040
1.0
1040
1.0
1000

1040
0.0
1002
{
1002
}
1040
0.0
1002
{
1002
}
1040
0.0
1002
}
1002
}
1040
1.0
1040
0.0
1040
0.0
1002
}
1002
{
1040
1.0
1040
1.0
1000

1040
0.0
1002
{
1002
}
1040
0.0
1002
{
1002
}
1040
0.0
1002
}
1002
{
1040
0.5
1040
1.0
1000

1040
0.0
1002
{
1002
}
1040
0.0
1002
{
1002
}
1040
0.0
1002
}
1002
{
1070
     0
1040
0.0
1002
{
1002
}
1040
1.0
1002
{
1002
}
1040
0.0
1002
}
1002
{
1040
0.0
1002
{
1002
{
1010
0.0
1020
0.0
1030
0.0
1002
}
1040
1.0
1000

1040
0.0
1002
{
1002
}
1040
0.0
1002
{
1002
}
1040
0.0
1002
}
1002
}
1002
{
1002
{
1070
     1
1002
{
1040
0.0
1040
1.0
1000

1040
0.0
1002
{
1002
}
1040
0.0
1002
{
1002
}
1040
0.0
1002
}
1002
}
1040
0.0
1002
{
1002
}
1010
1.0
1020
0.0
1030
0.0
1010
0.0
1020
1.0
1030
0.0
1010
0.0
1020
0.0
1030
1.0
1070
     0
1002
}
1002
{
1002
{
1040
1.0
1040
1.0
1002
{
1070
     1
1002
{
1040
1.0
1040
1.0
1000

1040
0.0
1002
{
1002
}
1040
0.0
1002
{
1002
}
1040
0.0
1002
}
1002
}
1002
}
1070
     0
1040
0.0
1002
{
1002
}
1002
}
1002
{
1002
}
1002
}
1002
{
1071
        3
1070
     3
1070
     0
1002
{
1070
     2
1070
     0
1070
     0
1040
0.0
1002
}
1070
     0
1070
     2
1002
{
1002
}
1002
}
1002
{
1040
8030.0
1040
190.3000030517578
1040
0.3050000071525574
1040
228.0
1040
545.0
1040
14.0
1040
17.39999961853027
1040
0.4560000002384186
1002
}
1002
}
  0
POLYLINE
  5
FC
330
1F
100
AcDbEntity
  8
0
 62
   151
100
AcDbPolyFaceMesh
 66
     1
 10
0.0
 20
0.0
 30
0.0
 70
    64
 71
   453
 72
   902
  0
VERTEX
  5
FD
330
FC
100
AcDbEntity
  8
0
 62
   151
100
AcDbVertex
100
AcDbPolyFaceMeshVertex
 10
0.0
 20
40.0
 30
0.0
 70
   192
  0
VERTEX
  5
FE
330
FC
100
AcDbEntity
  8
0
 62
   151
100
AcDbVertex
100
AcDbPolyFaceMeshVertex
 10
-11.00506114959717
 20
38.58480834960938
 30
-7.995506286621093
 70
   192
  0
VERTEX
  5
FF
330
FC
100
AcDbEntity
  8
0
 62
   151
100
AcDbVertex
100
AcDbPolyFaceMeshVertex
 10
-13.60292339324951
 20
38.58480834960938
 30
0.0
 70
   192
  0
VERTEX
  5
100
330
FC
100
AcDbEntity
  8
0
 62
   151
100
AcDbVertex
100
AcDbPolyFaceMeshVertex
 10
-13.88823986053467
 20
38.41058349609375
 30
0.0000000000682121
 70
   192
  0
VERTEX
  5
101
330
FC
100
AcDbEntity
  8
0
 62
   151
100
AcDbVertex
100
AcDbPolyFaceMeshVertex
 10
-6.838170051574707
 20
39.64524841308594
 30
0.0
 70
   192
  0
VERTEX
  5
102
330
FC
100
AcDbEntity
  8
0
 62
   151
100
AcDbVertex
100
AcDbPolyFaceMeshVertex
 10
-11.00504207611084
 20
38.58480834960938
 30
7.995532989501953
 70
   192
  0
VERTEX
  5
103
330
FC
100
AcDbEntity
  8
0
 62
   151
100
AcDbVertex
100
AcDbPolyFaceMeshVertex
 10
-11.32626628875732
 20
38.09550476074219
 30
8.228955268859863
 70
   192
  0
VERTEX
  5
104
330
FC
100
AcDbEntity
  8
0
 62
   151
100
AcDbVertex
100
AcDbPolyFaceMeshVertex
 10
-4.203492164611816
 20
38.58480834960938
 30
-12.93716144561767
 70
   192
  0
VERTEX
  5
105
330
FC
100
AcDbEntity
  8
0
 62
   151
100
AcDbVertex
100
AcDbPolyFaceMeshVertex
 10
-11.32627391815185
 20
38.09550476074219
 30
-8.228946685791015
 70
   192
  0
VERTEX
  5
106
330
FC
100
AcDbEntity
  8
0
 62
   151
100
AcDbVertex
100
AcDbPolyFaceMeshVertex
 10
-13.99999904632568
 20
38.09550476074219
 30
0.0
 70
   192
  0
VERTEX
  5
107
330
FC
100
AcDbEntity
  8
0
 62
   151
100
AcDbVertex
100
AcDbPolyFaceMeshVertex
 10
4.203537464141845
 20
38.58480834960938
 30
-12.93714809417724
 70
   192
  0
VERTEX
  5
108
330
FC
100
AcDbEntity
  8
0
 62
   151
100
AcDbVertex
100
AcDbPolyFaceMeshVertex
 10
-4.326226234436035
 20
38.09550476074219
 30
-13.31479549407959
 70
   192
  0
VERTEX
  5
109
330
FC
100
AcDbEntity
  8
0
 62
   151
100
AcDbVertex
100
AcDbPolyFaceMeshVertex
 10
11.00504207611084
 20
38.58480834960938
 30
-7.995532989501953
 70
   192
  0
VERTEX
  5
10A
330
FC
100
AcDbEntity
  8
0
 62
   151
100
AcDbVertex
100
AcDbPolyFaceMeshVertex
 10
4.326220989227294
 20
38.09550476074219
 30
-13.31479835510254
 70
   192
  0
VERTEX
  5
10B
330
FC
100
AcDbEntity
  8
0
 62
   151
100
AcDbVertex
100
AcDbPolyFaceMeshVertex
 10
6.838170528411865
 20
39.64524841308594
 30
0.0
 70
   192
  0
VERTEX
  5
10C
330
FC
100
AcDbEntity
  8
0
 62
   151
100
AcDbVertex
100
AcDbPolyFaceMeshVertex
 10
13.60292243957519
 20
38.58480834960938
 30
0.0
 70
   192
  0
VERTEX
  5
10D
330
FC
100
AcDbEntity
  8
0
 62
   151
100
AcDbVertex
100
AcDbPolyFaceMeshVertex
 10
11.32626438140869
 20
38.09550476074219
 30
-8.228955268859863
 70
   192
  0
VERTEX
  5
10E
330
FC
100
AcDbEntity
  8
0
 62
   151
100
AcDbVertex
100
AcDbPolyFaceMeshVertex
 10
11.00506114959717
 20
38.58480834960938
 30
7.995506286621093
 70
   192
  0
VERTEX
  5
10F
330
FC
100
AcDbEntity
  8
0
 62
   151
100
AcDbVertex
100
AcDbPolyFaceMeshVertex
 10
13.88823986053467
 20
38.41058349609375
 30
-0.0000000000682121
 70
   192
  0
VERTEX
  5
110
330
FC
100
AcDbEntity
  8
0
 62
   151
100
AcDbVertex
100
AcDbPolyFaceMeshVertex
 10
4.203492641448974
 20
38.58480834960938
 30
12.93716144561767
 70
   192
  0
VERTEX
  5
111
330
FC
100
AcDbEntity
  8
0
 62
   151
100
AcDbVertex
100
AcDbPolyFaceMeshVertex
 10
-4.203537940979003
 20
38.58480834960938
 30
12.93714809417724
 70
   192
  0
VERTEX
  5
112
330
FC
100
AcDbEntity
  8
0
 62
   151
100
AcDbVertex
100
AcDbPolyFaceMeshVertex
 10
-13.99999904632568
 20
0.0
 30
0.0
 70
   192
  0
VERTEX
  5
113
330
FC
100
AcDbEntity
  8
0
 62
   151
100
AcDbVertex
100
AcDbPolyFaceMeshVertex
 10
-11.32662487030029
 20
0.0
 30
8.228347778320312
 70
   192
  0
VERTEX
  5
114
330
FC
100
AcDbEntity
  8
0
 62
   151
100
AcDbVertex
100
AcDbPolyFaceMeshVertex
 10
-11.32662487030029
 20
0.0
 30
-8.228347778320312
 70
   192
  0
VERTEX
  5
115
330
FC
100
AcDbEntity
  8
0
 62
   151
100
AcDbVertex
100
AcDbPolyFaceMeshVertex
 10
-11.80000209808349
 20
0.0
 30
0.0
 70
   192
  0
VERTEX
  5
116
330
FC
100
AcDbEntity
  8
0
 62
   151
100
AcDbVertex
100
AcDbPolyFaceMeshVertex
 10
-9.547106742858886
 20
0.0
 30
6.934609413146972
 70
   192
  0
VERTEX
  5
117
330
FC
100
AcDbEntity
  8
0
 62
   151
100
AcDbVertex
100
AcDbPolyFaceMeshVertex
 10
-4.32654857635498
 20
0.0
 30
-13.31453132629394
 70
   192
  0
VERTEX
  5
118
330
FC
100
AcDbEntity
  8
0
 62
   151
100
AcDbVertex
100
AcDbPolyFaceMeshVertex
 10
-3.646965980529785
 20
0.0
 30
-11.22188663482666
 70
   192
  0
VERTEX
  5
119
330
FC
100
AcDbEntity
  8
0
 62
   151
100
AcDbVertex
100
AcDbPolyFaceMeshVertex
 10
-9.547106742858886
 20
0.0
 30
-6.934609413146972
 70
   192
  0
VERTEX
  5
11A
330
FC
100
AcDbEntity
  8
0
 62
   151
100
AcDbVertex
100
AcDbPolyFaceMeshVertex
 10
4.326549053192138
 20
0.0
 30
-13.31453132629394
 70
   192
  0
VERTEX
  5
11B
330
FC
100
AcDbEntity
  8
0
 62
   151
100
AcDbVertex
100
AcDbPolyFaceMeshVertex
 10
3.646965503692626
 20
0.0
 30
-11.22188568115234
 70
   192
  0
VERTEX
  5
11C
330
FC
100
AcDbEntity
  8
0
 62
   151
100
AcDbVertex
100
AcDbPolyFaceMeshVertex
 10
11.32662391662597
 20
0.0
 30
-8.228346824645996
 70
   192
  0
VERTEX
  5
11D
330
FC
100
AcDbEntity
  8
0
 62
   151
100
AcDbVertex
100
AcDbPolyFaceMeshVertex
 10
14.0
 20
26.07754516601563
 30
0.0
 70
   192
  0
VERTEX
  5
11E
330
FC
100
AcDbEntity
  8
0
 62
   151
100
AcDbVertex
100
AcDbPolyFaceMeshVertex
 10
14.0
 20
0.0
 30
0.0
 70
   192
  0
VERTEX
  5
11F
330
FC
100
AcDbEntity
  8
0
 62
   151
100
AcDbVertex
100
AcDbPolyFaceMeshVertex
 10
9.547107696533203
 20
0.0
 30
-6.934609413146972
 70
   192
  0
VERTEX
  5
120
330
FC
100
AcDbEntity
  8
0
 62
   151
100
AcDbVertex
100
AcDbPolyFaceMeshVertex
 10
13.70533084869385
 20
27.24154663085938
 30
-2.857253789901733
 70
   192
  0
VERTEX
  5
121
330
FC
100
AcDbEntity
  8
0
 62
   151
100
AcDbVertex
100
AcDbPolyFaceMeshVertex
 10
13.41646099090576
 20
30.09123229980469
 30
-3.999820232391357
 70
   192
  0
VERTEX
  5
122
330
FC
100
AcDbEntity
  8
0
 62
   151
100
AcDbVertex
100
AcDbPolyFaceMeshVertex
 10
13.7028226852417
 20
27.25361633300781
 30
2.869256258010864
 70
   192
  0
VERTEX
  5
123
330
FC
100
AcDbEntity
  8
0
 62
   151
100
AcDbVertex
100
AcDbPolyFaceMeshVertex
 10
11.80000114440918
 20
0.0
 30
0.0
 70
   192
  0
VERTEX
  5
124
330
FC
100
AcDbEntity
  8
0
 62
   151
100
AcDbVertex
100
AcDbPolyFaceMeshVertex
 10
11.32662487030029
 20
0.0
 30
8.228347778320312
 70
   192
  0
VERTEX
  5
125
330
FC
100
AcDbEntity
  8
0
 62
   151
100
AcDbVertex
100
AcDbPolyFaceMeshVertex
 10
11.32627201080322
 20
38.09550476074219
 30
8.228945732116699
 70
   192
  0
VERTEX
  5
126
330
FC
100
AcDbEntity
  8
0
 62
   151
100
AcDbVertex
100
AcDbPolyFaceMeshVertex
 10
13.41654014587402
 20
30.11456298828125
 30
3.999559164047241
 70
   192
  0
VERTEX
  5
127
330
FC
100
AcDbEntity
  8
0
 62
   151
100
AcDbVertex
100
AcDbPolyFaceMeshVertex
 10
113.0494232177734
 20
50.77333831787109
 30
0.0
 70
   192
  0
VERTEX
  5
128
330
FC
100
AcDbEntity
  8
0
 62
   151
100
AcDbVertex
100
AcDbPolyFaceMeshVertex
 10
119.9991149902343
 20
53.71353149414062
 30
2.828426361083984
 70
   192
  0
VERTEX
  5
129
330
FC
100
AcDbEntity
  8
0
 62
   151
100
AcDbVertex
100
AcDbPolyFaceMeshVertex
 10
113.4029159545898
 20
51.05613708496093
 30
1.214652061462402
 70
   192
  0
VERTEX
  5
12A
330
FC
100
AcDbEntity
  8
0
 62
   151
100
AcDbVertex
100
AcDbPolyFaceMeshVertex
 10
114.3681030273437
 20
51.61476135253906
 30
1.931808710098266
 70
   192
  0
VERTEX
  5
12B
330
FC
100
AcDbEntity
  8
0
 62
   151
100
AcDbVertex
100
AcDbPolyFaceMeshVertex
 10
119.3148422241211
 20
56.45794677734375
 30
-4.0
 70
   192
  0
VERTEX
  5
12C
330
FC
100
AcDbEntity
  8
0
 62
   151
100
AcDbVertex
100
AcDbPolyFaceMeshVertex
 10
119.9990997314453
 20
53.71353149414062
 30
-2.828429222106933
 70
   192
  0
VERTEX
  5
12D
330
FC
100
AcDbEntity
  8
0
 62
   151
100
AcDbVertex
100
AcDbPolyFaceMeshVertex
 10
114.3681030273437
 20
51.61476135253906
 30
-1.931808710098266
 70
   192
  0
VERTEX
  5
12E
330
FC
100
AcDbEntity
  8
0
 62
   151
100
AcDbVertex
100
AcDbPolyFaceMeshVertex
 10
113.3996124267578
 20
51.0536880493164
 30
-1.209674835205078
 70
   192
  0
VERTEX
  5
12F
330
FC
100
AcDbEntity
  8
0
 62
   151
100
AcDbVertex
100
AcDbPolyFaceMeshVertex
 10
13.72238445281982
 20
33.10052490234375
 30
-2.774189710617065
 70
   192
  0
VERTEX
  5
130
330
FC
100
AcDbEntity
  8
0
 62
   151
100
AcDbVertex
100
AcDbPolyFaceMeshVertex
 10
118.6305999755859
 20
59.20236206054688
 30
-2.828426122665405
 70
   192
  0
VERTEX
  5
131
330
FC
100
AcDbEntity
  8
0
 62
   151
100
AcDbVertex
100
AcDbPolyFaceMeshVertex
 10
14.0
 20
38.09550476074219
 30
0.0
 70
   192
  0
VERTEX
  5
132
330
FC
100
AcDbEntity
  8
0
 62
   151
100
AcDbVertex
100
AcDbPolyFaceMeshVertex
 10
14.0
 20
34.32245635986328
 30
0.0
 70
   192
  0
VERTEX
  5
133
330
FC
100
AcDbEntity
  8
0
 62
   151
100
AcDbVertex
100
AcDbPolyFaceMeshVertex
 10
13.7241849899292
 20
33.10980224609375
 30
2.765274286270141
 70
   192
  0
VERTEX
  5
134
330
FC
100
AcDbEntity
  8
0
 62
   151
100
AcDbVertex
100
AcDbPolyFaceMeshVertex
 10
118.34716796875
 20
60.33912658691406
 30
0.0
 70
   192
  0
VERTEX
  5
135
330
FC
100
AcDbEntity
  8
0
 62
   151
100
AcDbVertex
100
AcDbPolyFaceMeshVertex
 10
-3.646965980529785
 20
0.0
 30
11.22188568115234
 70
   192
  0
VERTEX
  5
136
330
FC
100
AcDbEntity
  8
0
 62
   151
100
AcDbVertex
100
AcDbPolyFaceMeshVertex
 10
-4.32654857635498
 20
0.0
 30
13.31453132629394
 70
   192
  0
VERTEX
  5
137
330
FC
100
AcDbEntity
  8
0
 62
   151
100
AcDbVertex
100
AcDbPolyFaceMeshVertex
 10
4.326549053192138
 20
0.0
 30
13.31453132629394
 70
   192
  0
VERTEX
  5
138
330
FC
100
AcDbEntity
  8
0
 62
   151
100
AcDbVertex
100
AcDbPolyFaceMeshVertex
 10
-4.326220512390136
 20
38.09550476074219
 30
13.31479835510254
 70
   192
  0
VERTEX
  5
139
330
FC
100
AcDbEntity
  8
0
 62
   151
100
AcDbVertex
100
AcDbPolyFaceMeshVertex
 10
3.646965980529785
 20
0.0
 30
11.22188663482666
 70
   192
  0
VERTEX
  5
13A
330
FC
100
AcDbEntity
  8
0
 62
   151
100
AcDbVertex
100
AcDbPolyFaceMeshVertex
 10
4.326226234436035
 20
38.09550476074219
 30
13.31479549407959
 70
   192
  0
VERTEX
  5
13B
330
FC
100
AcDbEntity
  8
0
 62
   151
100
AcDbVertex
100
AcDbPolyFaceMeshVertex
 10
9.547107696533203
 20
0.0
 30
6.934609413146972
 70
   192
  0
VERTEX
  5
13C
330
FC
100
AcDbEntity
  8
0
 62
   151
100
AcDbVertex
100
AcDbPolyFaceMeshVertex
 10
11.80000114440918
 20
-14.09107971191406
 30
0.0
 70
   192
  0
VERTEX
  5
13D
330
FC
100
AcDbEntity
  8
0
 62
   151
100
AcDbVertex
100
AcDbPolyFaceMeshVertex
 10
9.546401023864746
 20
-14.09107971191406
 30
-6.935866355895996
 70
   192
  0
VERTEX
  5
13E
330
FC
100
AcDbEntity
  8
0
 62
   151
100
AcDbVertex
100
AcDbPolyFaceMeshVertex
 10
11.22246646881103
 20
-14.0910758972168
 30
-3.646400451660156
 70
   192
  0
VERTEX
  5
13F
330
FC
100
AcDbEntity
  8
0
 62
   151
100
AcDbVertex
100
AcDbPolyFaceMeshVertex
 10
9.546401023864746
 20
-14.0910758972168
 30
6.935865879058837
 70
   192
  0
VERTEX
  5
140
330
FC
100
AcDbEntity
  8
0
 62
   151
100
AcDbVertex
100
AcDbPolyFaceMeshVertex
 10
11.22246742248535
 20
-14.09107971191406
 30
3.646400451660156
 70
   192
  0
VERTEX
  5
141
330
FC
100
AcDbEntity
  8
0
 62
   151
100
AcDbVertex
100
AcDbPolyFaceMeshVertex
 10
3.646400451660156
 20
-14.0910758972168
 30
11.22246646881103
 70
   192
  0
VERTEX
  5
142
330
FC
100
AcDbEntity
  8
0
 62
   151
100
AcDbVertex
100
AcDbPolyFaceMeshVertex
 10
6.935865879058837
 20
-14.0910758972168
 30
9.546401023864746
 70
   192
  0
VERTEX
  5
143
330
FC
100
AcDbEntity
  8
0
 62
   151
100
AcDbVertex
100
AcDbPolyFaceMeshVertex
 10
-3.646400451660156
 20
-14.09107971191406
 30
11.22246742248535
 70
   192
  0
VERTEX
  5
144
330
FC
100
AcDbEntity
  8
0
 62
   151
100
AcDbVertex
100
AcDbPolyFaceMeshVertex
 10
0.0
 20
-14.0910758972168
 30
11.80000019073486
 70
   192
  0
VERTEX
  5
145
330
FC
100
AcDbEntity
  8
0
 62
   151
100
AcDbVertex
100
AcDbPolyFaceMeshVertex
 10
-9.546401023864746
 20
-14.09107971191406
 30
6.935866355895996
 70
   192
  0
VERTEX
  5
146
330
FC
100
AcDbEntity
  8
0
 62
   151
100
AcDbVertex
100
AcDbPolyFaceMeshVertex
 10
-6.935866355895996
 20
-14.0910758972168
 30
9.546400070190429
 70
   192
  0
VERTEX
  5
147
330
FC
100
AcDbEntity
  8
0
 62
   151
100
AcDbVertex
100
AcDbPolyFaceMeshVertex
 10
-11.80000209808349
 20
-14.09107971191406
 30
0.0
 70
   192
  0
VERTEX
  5
148
330
FC
100
AcDbEntity
  8
0
 62
   151
100
AcDbVertex
100
AcDbPolyFaceMeshVertex
 10
-11.22246646881103
 20
-14.0910758972168
 30
3.646400451660156
 70
   192
  0
VERTEX
  5
149
330
FC
100
AcDbEntity
  8
0
 62
   151
100
AcDbVertex
100
AcDbPolyFaceMeshVertex
 10
-9.546401023864746
 20
-14.0910758972168
 30
-6.935865879058837
 70
   192
  0
VERTEX
  5
14A
330
FC
100
AcDbEntity
  8
0
 62
   151
100
AcDbVertex
100
AcDbPolyFaceMeshVertex
 10
-11.22246837615967
 20
-14.09107971191406
 30
-3.646400451660156
 70
   192
  0
VERTEX
  5
14B
330
FC
100
AcDbEntity
  8
0
 62
   151
100
AcDbVertex
100
AcDbPolyFaceMeshVertex
 10
-3.646400451660156
 20
-14.0910758972168
 30
-11.22246646881103
 70
   192
  0
VERTEX
  5
14C
330
FC
100
AcDbEntity
  8
0
 62
   151
100
AcDbVertex
100
AcDbPolyFaceMeshVertex
 10
-6.935866355895996
 20
-14.0910758972168
 30
-9.546401023864746
 70
   192
  0
VERTEX
  5
14D
330
FC
100
AcDbEntity
  8
0
 62
   151
100
AcDbVertex
100
AcDbPolyFaceMeshVertex
 10
3.646400451660156
 20
-14.09107971191406
 30
-11.22246742248535
 70
   192
  0
VERTEX
  5
14E
330
FC
100
AcDbEntity
  8
0
 62
   151
100
AcDbVertex
100
AcDbPolyFaceMeshVertex
 10
0.0
 20
-14.0910758972168
 30
-11.80000019073486
 70
   192
  0
VERTEX
  5
14F
330
FC
100
AcDbEntity
  8
0
 62
   151
100
AcDbVertex
100
AcDbPolyFaceMeshVertex
 10
6.935865879058837
 20
-14.0910758972168
 30
-9.546400070190429
 70
   192
  0
VERTEX
  5
150
330
FC
100
AcDbEntity
  8
0
 62
   151
100
AcDbVertex
100
AcDbPolyFaceMeshVertex
 10
118.6305999755859
 20
59.20235443115235
 30
2.828429222106933
 70
   192
  0
VERTEX
  5
151
330
FC
100
AcDbEntity
  8
0
 62
   151
100
AcDbVertex
100
AcDbPolyFaceMeshVertex
 10
119.3148422241211
 20
56.45794677734375
 30
4.0
 70
   192
  0
VERTEX
  5
152
330
FC
100
AcDbEntity
  8
0
 62
   151
100
AcDbVertex
100
AcDbPolyFaceMeshVertex
 10
120.3997955322265
 20
54.17327880859375
 30
-2.469505071640014
 70
   192
  0
VERTEX
  5
153
330
FC
100
AcDbEntity
  8
0
 62
   151
100
AcDbVertex
100
AcDbPolyFaceMeshVertex
 10
119.2001953125
 20
58.98457336425781
 30
-2.469461679458618
 70
   192
  0
VERTEX
  5
154
330
FC
100
AcDbEntity
  8
0
 62
   151
100
AcDbVertex
100
AcDbPolyFaceMeshVertex
 10
118.9532699584961
 20
59.97494506835938
 30
0.0
 70
   192
  0
VERTEX
  5
155
330
FC
100
AcDbEntity
  8
0
 62
   151
100
AcDbVertex
100
AcDbPolyFaceMeshVertex
 10
118.7256469726562
 20
60.28256225585938
 30
0.0000000606560207
 70
   192
  0
VERTEX
  5
156
330
FC
100
AcDbEntity
  8
0
 62
   151
100
AcDbVertex
100
AcDbPolyFaceMeshVertex
 10
120.646728515625
 20
53.18286895751953
 30
0.0
 70
   192
  0
VERTEX
  5
157
330
FC
100
AcDbEntity
  8
0
 62
   151
100
AcDbVertex
100
AcDbPolyFaceMeshVertex
 10
119.200210571289
 20
58.98453521728516
 30
2.469505071640014
 70
   192
  0
VERTEX
  5
158
330
FC
100
AcDbEntity
  8
0
 62
   151
100
AcDbVertex
100
AcDbPolyFaceMeshVertex
 10
118.9987030029297
 20
59.18740844726563
 30
2.724874019622802
 70
   192
  0
VERTEX
  5
159
330
FC
100
AcDbEntity
  8
0
 62
   151
100
AcDbVertex
100
AcDbPolyFaceMeshVertex
 10
119.7999954223633
 20
56.57891845703125
 30
-3.5
 70
   192
  0
VERTEX
  5
15A
330
FC
100
AcDbEntity
  8
0
 62
   151
100
AcDbVertex
100
AcDbPolyFaceMeshVertex
 10
118.9987030029297
 20
59.18740844726563
 30
-2.724874019622802
 70
   192
  0
VERTEX
  5
15B
330
FC
100
AcDbEntity
  8
0
 62
   151
100
AcDbVertex
100
AcDbPolyFaceMeshVertex
 10
119.6579132080078
 20
56.54347229003906
 30
-3.853553533554077
 70
   192
  0
VERTEX
  5
15C
330
FC
100
AcDbEntity
  8
0
 62
   151
100
AcDbVertex
100
AcDbPolyFaceMeshVertex
 10
120.3171234130859
 20
53.89954376220703
 30
-2.724874019622802
 70
   192
  0
VERTEX
  5
15D
330
FC
100
AcDbEntity
  8
0
 62
   151
100
AcDbVertex
100
AcDbPolyFaceMeshVertex
 10
120.3998031616211
 20
54.17323303222656
 30
2.469461679458618
 70
   192
  0
VERTEX
  5
15E
330
FC
100
AcDbEntity
  8
0
 62
   151
100
AcDbVertex
100
AcDbPolyFaceMeshVertex
 10
120.5901641845703
 20
52.80438995361328
 30
-0.0000000606560207
 70
   192
  0
VERTEX
  5
15F
330
FC
100
AcDbEntity
  8
0
 62
   151
100
AcDbVertex
100
AcDbPolyFaceMeshVertex
 10
119.8000030517578
 20
56.57888793945312
 30
3.5
 70
   192
  0
VERTEX
  5
160
330
FC
100
AcDbEntity
  8
0
 62
   151
100
AcDbVertex
100
AcDbPolyFaceMeshVertex
 10
120.3171234130859
 20
53.89954376220703
 30
2.724874019622802
 70
   192
  0
VERTEX
  5
161
330
FC
100
AcDbEntity
  8
0
 62
   151
100
AcDbVertex
100
AcDbPolyFaceMeshVertex
 10
119.6579132080078
 20
56.54347229003906
 30
3.853553533554077
 70
   192
  0
VERTEX
  5
162
330
FC
100
AcDbEntity
  8
0
 62
   151
100
AcDbVertex
100
AcDbPolyFaceMeshVertex
 10
114.8767013549804
 20
51.74063110351562
 30
-1.930149912834167
 70
   192
  0
VERTEX
  5
163
330
FC
100
AcDbEntity
  8
0
 62
   151
100
AcDbVertex
100
AcDbPolyFaceMeshVertex
 10
113.112434387207
 20
51.30401611328125
 30
-0.8462818264961242
 70
   192
  0
VERTEX
  5
164
330
FC
100
AcDbEntity
  8
0
 62
   151
100
AcDbVertex
100
AcDbPolyFaceMeshVertex
 10
113.1124420166015
 20
51.30401611328125
 30
0.8462818264961242
 70
   192
  0
VERTEX
  5
165
330
FC
100
AcDbEntity
  8
0
 62
   151
100
AcDbVertex
100
AcDbPolyFaceMeshVertex
 10
115.3852386474609
 20
51.86648559570312
 30
-1.928489089012145
 70
   192
  0
VERTEX
  5
166
330
FC
100
AcDbEntity
  8
0
 62
   151
100
AcDbVertex
100
AcDbPolyFaceMeshVertex
 10
114.8767013549804
 20
51.74063110351562
 30
1.930149912834167
 70
   192
  0
VERTEX
  5
167
330
FC
100
AcDbEntity
  8
0
 62
   151
100
AcDbVertex
100
AcDbPolyFaceMeshVertex
 10
120.2825469970703
 20
52.57675933837891
 30
0.0
 70
   192
  0
VERTEX
  5
168
330
FC
100
AcDbEntity
  8
0
 62
   151
100
AcDbVertex
100
AcDbPolyFaceMeshVertex
 10
116.4911422729492
 20
51.82418823242187
 30
-1.208752870559692
 70
   192
  0
VERTEX
  5
169
330
FC
100
AcDbEntity
  8
0
 62
   151
100
AcDbVertex
100
AcDbPolyFaceMeshVertex
 10
116.6307601928711
 20
52.17472076416015
 30
-0.842440128326416
 70
   192
  0
VERTEX
  5
16A
330
FC
100
AcDbEntity
  8
0
 62
   151
100
AcDbVertex
100
AcDbPolyFaceMeshVertex
 10
115.3852386474609
 20
51.86648559570312
 30
1.928489089012145
 70
   192
  0
VERTEX
  5
16B
330
FC
100
AcDbEntity
  8
0
 62
   151
100
AcDbVertex
100
AcDbPolyFaceMeshVertex
 10
116.9305953979492
 20
51.74102783203125
 30
0.0
 70
   192
  0
VERTEX
  5
16C
330
FC
100
AcDbEntity
  8
0
 62
   151
100
AcDbVertex
100
AcDbPolyFaceMeshVertex
 10
116.4944686889648
 20
51.82368469238281
 30
1.204645752906799
 70
   192
  0
VERTEX
  5
16D
330
FC
100
AcDbEntity
  8
0
 62
   151
100
AcDbVertex
100
AcDbPolyFaceMeshVertex
 10
116.6307678222656
 20
52.17471313476562
 30
0.842440128326416
 70
   192
  0
VERTEX
  5
16E
330
FC
100
AcDbEntity
  8
0
 62
   151
100
AcDbVertex
100
AcDbPolyFaceMeshVertex
 10
20.56810188293457
 20
-15.59999847412109
 30
-11.875
 70
   192
  0
VERTEX
  5
16F
330
FC
100
AcDbEntity
  8
0
 62
   151
100
AcDbVertex
100
AcDbPolyFaceMeshVertex
 10
17.7910041809082
 20
-14.71879196166992
 30
0.0
 70
   192
  0
VERTEX
  5
170
330
FC
100
AcDbEntity
  8
0
 62
   151
100
AcDbVertex
100
AcDbPolyFaceMeshVertex
 10
-17.7910041809082
 20
-14.71879196166992
 30
0.0
 70
   192
  0
VERTEX
  5
171
330
FC
100
AcDbEntity
  8
0
 62
   151
100
AcDbVertex
100
AcDbPolyFaceMeshVertex
 10
-20.5681037902832
 20
-15.59999847412109
 30
11.875
 70
   192
  0
VERTEX
  5
172
330
FC
100
AcDbEntity
  8
0
 62
   151
100
AcDbVertex
100
AcDbPolyFaceMeshVertex
 10
-20.5681037902832
 20
-15.59999847412109
 30
-11.87500095367431
 70
   192
  0
VERTEX
  5
173
330
FC
100
AcDbEntity
  8
0
 62
   151
100
AcDbVertex
100
AcDbPolyFaceMeshVertex
 10
-23.75
 20
-15.59999847412109
 30
0.0
 70
   192
  0
VERTEX
  5
174
330
FC
100
AcDbEntity
  8
0
 62
   151
100
AcDbVertex
100
AcDbPolyFaceMeshVertex
 10
-11.87500095367431
 20
-15.59999847412109
 30
-20.5681037902832
 70
   192
  0
VERTEX
  5
175
330
FC
100
AcDbEntity
  8
0
 62
   151
100
AcDbVertex
100
AcDbPolyFaceMeshVertex
 10
0.0
 20
-15.59999847412109
 30
-23.75
 70
   192
  0
VERTEX
  5
176
330
FC
100
AcDbEntity
  8
0
 62
   151
100
AcDbVertex
100
AcDbPolyFaceMeshVertex
 10
11.87500095367431
 20
-15.59999847412109
 30
-20.5681037902832
 70
   192
  0
VERTEX
  5
177
330
FC
100
AcDbEntity
  8
0
 62
   151
100
AcDbVertex
100
AcDbPolyFaceMeshVertex
 10
20.5681037902832
 20
-15.59999847412109
 30
11.87500095367431
 70
   192
  0
VERTEX
  5
178
330
FC
100
AcDbEntity
  8
0
 62
   151
100
AcDbVertex
100
AcDbPolyFaceMeshVertex
 10
23.75
 20
-15.59999847412109
 30
0.0
 70
   192
  0
VERTEX
  5
179
330
FC
100
AcDbEntity
  8
0
 62
   151
100
AcDbVertex
100
AcDbPolyFaceMeshVertex
 10
11.87500095367431
 20
-15.59999847412109
 30
20.5681037902832
 70
   192
  0
VERTEX
  5
17A
330
FC
100
AcDbEntity
  8
0
 62
   151
100
AcDbVertex
100
AcDbPolyFaceMeshVertex
 10
0.0
 20
-15.59999847412109
 30
23.75
 70
   192
  0
VERTEX
  5
17B
330
FC
100
AcDbEntity
  8
0
 62
   151
100
AcDbVertex
100
AcDbPolyFaceMeshVertex
 10
-11.87500095367431
 20
-15.59999847412109
 30
20.5681037902832
 70
   192
  0
VERTEX
  5
17C
330
FC
100
AcDbEntity
  8
0
 62
   151
100
AcDbVertex
100
AcDbPolyFaceMeshVertex
 10
8.090170860290527
 20
-19.09999847412109
 30
-5.877852916717529
 70
   192
  0
VERTEX
  5
17D
330
FC
100
AcDbEntity
  8
0
 62
   151
100
AcDbVertex
100
AcDbPolyFaceMeshVertex
 10
15.06786918640137
 20
-19.09999847412109
 30
-8.701396942138671
 70
   192
  0
VERTEX
  5
17E
330
FC
100
AcDbEntity
  8
0
 62
   151
100
AcDbVertex
100
AcDbPolyFaceMeshVertex
 10
17.4000015258789
 20
-19.09999847412109
 30
0.0
 70
   192
  0
VERTEX
  5
17F
330
FC
100
AcDbEntity
  8
0
 62
   151
100
AcDbVertex
100
AcDbPolyFaceMeshVertex
 10
17.4000015258789
 20
-18.59999847412109
 30
0.0
 70
   192
  0
VERTEX
  5
180
330
FC
100
AcDbEntity
  8
0
 62
   151
100
AcDbVertex
100
AcDbPolyFaceMeshVertex
 10
10.0
 20
-19.09999847412109
 30
0.0
 70
   192
  0
VERTEX
  5
181
330
FC
100
AcDbEntity
  8
0
 62
   151
100
AcDbVertex
100
AcDbPolyFaceMeshVertex
 10
15.06786918640137
 20
-19.09999847412109
 30
8.701396942138671
 70
   192
  0
VERTEX
  5
182
330
FC
100
AcDbEntity
  8
0
 62
   151
100
AcDbVertex
100
AcDbPolyFaceMeshVertex
 10
15.06786823272705
 20
-18.59999847412109
 30
8.701395988464355
 70
   192
  0
VERTEX
  5
183
330
FC
100
AcDbEntity
  8
0
 62
   151
100
AcDbVertex
100
AcDbPolyFaceMeshVertex
 10
-8.698634147644042
 20
-19.09999847412109
 30
-15.06919765472412
 70
   192
  0
VERTEX
  5
184
330
FC
100
AcDbEntity
  8
0
 62
   151
100
AcDbVertex
100
AcDbPolyFaceMeshVertex
 10
8.698635101318359
 20
-19.09999847412109
 30
-15.06919765472412
 70
   192
  0
VERTEX
  5
185
330
FC
100
AcDbEntity
  8
0
 62
   151
100
AcDbVertex
100
AcDbPolyFaceMeshVertex
 10
15.06786918640137
 20
-18.59999847412109
 30
-8.701396942138671
 70
   192
  0
VERTEX
  5
186
330
FC
100
AcDbEntity
  8
0
 62
   151
100
AcDbVertex
100
AcDbPolyFaceMeshVertex
 10
3.09016990661621
 20
-19.09999847412109
 30
-9.510565757751464
 70
   192
  0
VERTEX
  5
187
330
FC
100
AcDbEntity
  8
0
 62
   151
100
AcDbVertex
100
AcDbPolyFaceMeshVertex
 10
0.0
 20
-19.09999847412109
 30
-17.39952659606933
 70
   192
  0
VERTEX
  5
188
330
FC
100
AcDbEntity
  8
0
 62
   151
100
AcDbVertex
100
AcDbPolyFaceMeshVertex
 10
8.698635101318359
 20
-18.59999847412109
 30
-15.06919765472412
 70
   192
  0
VERTEX
  5
189
330
FC
100
AcDbEntity
  8
0
 62
   151
100
AcDbVertex
100
AcDbPolyFaceMeshVertex
 10
0.0
 20
-18.59999847412109
 30
-17.39952850341797
 70
   192
  0
VERTEX
  5
18A
330
FC
100
AcDbEntity
  8
0
 62
   151
100
AcDbVertex
100
AcDbPolyFaceMeshVertex
 10
-3.09016990661621
 20
-19.09999847412109
 30
-9.510565757751464
 70
   192
  0
VERTEX
  5
18B
330
FC
100
AcDbEntity
  8
0
 62
   151
100
AcDbVertex
100
AcDbPolyFaceMeshVertex
 10
-15.06787014007568
 20
-19.09999847412109
 30
-8.701396942138671
 70
   192
  0
VERTEX
  5
18C
330
FC
100
AcDbEntity
  8
0
 62
   151
100
AcDbVertex
100
AcDbPolyFaceMeshVertex
 10
-8.698634147644042
 20
-18.59999847412109
 30
-15.06919765472412
 70
   192
  0
VERTEX
  5
18D
330
FC
100
AcDbEntity
  8
0
 62
   151
100
AcDbVertex
100
AcDbPolyFaceMeshVertex
 10
-9.999999046325683
 20
-19.09999847412109
 30
0.0
 70
   192
  0
VERTEX
  5
18E
330
FC
100
AcDbEntity
  8
0
 62
   151
100
AcDbVertex
100
AcDbPolyFaceMeshVertex
 10
-17.4000015258789
 20
-19.09999847412109
 30
0.0
 70
   192
  0
VERTEX
  5
18F
330
FC
100
AcDbEntity
  8
0
 62
   151
100
AcDbVertex
100
AcDbPolyFaceMeshVertex
 10
-15.06786823272705
 20
-18.59999847412109
 30
-8.701395988464355
 70
   192
  0
VERTEX
  5
190
330
FC
100
AcDbEntity
  8
0
 62
   151
100
AcDbVertex
100
AcDbPolyFaceMeshVertex
 10
-8.090170860290527
 20
-19.09999847412109
 30
-5.877852916717529
 70
   192
  0
VERTEX
  5
191
330
FC
100
AcDbEntity
  8
0
 62
   151
100
AcDbVertex
100
AcDbPolyFaceMeshVertex
 10
-8.090170860290527
 20
-19.09999847412109
 30
5.877852916717529
 70
   192
  0
VERTEX
  5
192
330
FC
100
AcDbEntity
  8
0
 62
   151
100
AcDbVertex
100
AcDbPolyFaceMeshVertex
 10
-15.06787014007568
 20
-19.09999847412109
 30
8.701396942138671
 70
   192
  0
VERTEX
  5
193
330
FC
100
AcDbEntity
  8
0
 62
   151
100
AcDbVertex
100
AcDbPolyFaceMeshVertex
 10
-17.4000015258789
 20
-18.59999847412109
 30
0.0
 70
   192
  0
VERTEX
  5
194
330
FC
100
AcDbEntity
  8
0
 62
   151
100
AcDbVertex
100
AcDbPolyFaceMeshVertex
 10
8.698635101318359
 20
-19.09999847412109
 30
15.06919765472412
 70
   192
  0
VERTEX
  5
195
330
FC
100
AcDbEntity
  8
0
 62
   151
100
AcDbVertex
100
AcDbPolyFaceMeshVertex
 10
-8.698634147644042
 20
-19.09999847412109
 30
15.06919765472412
 70
   192
  0
VERTEX
  5
196
330
FC
100
AcDbEntity
  8
0
 62
   151
100
AcDbVertex
100
AcDbPolyFaceMeshVertex
 10
-15.06787014007568
 20
-18.59999847412109
 30
8.701396942138671
 70
   192
  0
VERTEX
  5
197
330
FC
100
AcDbEntity
  8
0
 62
   151
100
AcDbVertex
100
AcDbPolyFaceMeshVertex
 10
-3.09016990661621
 20
-19.09999847412109
 30
9.510565757751464
 70
   192
  0
VERTEX
  5
198
330
FC
100
AcDbEntity
  8
0
 62
   151
100
AcDbVertex
100
AcDbPolyFaceMeshVertex
 10
0.0
 20
-19.09999847412109
 30
17.39952659606933
 70
   192
  0
VERTEX
  5
199
330
FC
100
AcDbEntity
  8
0
 62
   151
100
AcDbVertex
100
AcDbPolyFaceMeshVertex
 10
-8.698634147644042
 20
-18.59999847412109
 30
15.06919765472412
 70
   192
  0
VERTEX
  5
19A
330
FC
100
AcDbEntity
  8
0
 62
   151
100
AcDbVertex
100
AcDbPolyFaceMeshVertex
 10
0.0
 20
-18.59999847412109
 30
17.39952850341797
 70
   192
  0
VERTEX
  5
19B
330
FC
100
AcDbEntity
  8
0
 62
   151
100
AcDbVertex
100
AcDbPolyFaceMeshVertex
 10
3.09016990661621
 20
-19.09999847412109
 30
9.510565757751464
 70
   192
  0
VERTEX
  5
19C
330
FC
100
AcDbEntity
  8
0
 62
   151
100
AcDbVertex
100
AcDbPolyFaceMeshVertex
 10
8.698635101318359
 20
-18.59999847412109
 30
15.06919765472412
 70
   192
  0
VERTEX
  5
19D
330
FC
100
AcDbEntity
  8
0
 62
   151
100
AcDbVertex
100
AcDbPolyFaceMeshVertex
 10
8.090170860290527
 20
-19.09999847412109
 30
5.877852916717529
 70
   192
  0
VERTEX
  5
19E
330
FC
100
AcDbEntity
  8
0
 62
   151
100
AcDbVertex
100
AcDbPolyFaceMeshVertex
 10
10.0
 20
-43.10000228881835
 30
0.0
 70
   192
  0
VERTEX
  5
19F
330
FC
100
AcDbEntity
  8
0
 62
   151
100
AcDbVertex
100
AcDbPolyFaceMeshVertex
 10
8.088909149169921
 20
-43.10000228881835
 30
-5.879176616668701
 70
   192
  0
VERTEX
  5
1A0
330
FC
100
AcDbEntity
  8
0
 62
   151
100
AcDbVertex
100
AcDbPolyFaceMeshVertex
 10
8.088909149169921
 20
-43.10000228881835
 30
5.879176616668701
 70
   192
  0
VERTEX
  5
1A1
330
FC
100
AcDbEntity
  8
0
 62
   151
100
AcDbVertex
100
AcDbPolyFaceMeshVertex
 10
3.089138031005859
 20
-43.10000228881835
 30
9.510327339172363
 70
   192
  0
VERTEX
  5
1A2
330
FC
100
AcDbEntity
  8
0
 62
   151
100
AcDbVertex
100
AcDbPolyFaceMeshVertex
 10
-3.089138031005859
 20
-43.10000228881835
 30
9.510327339172363
 70
   192
  0
VERTEX
  5
1A3
330
FC
100
AcDbEntity
  8
0
 62
   151
100
AcDbVertex
100
AcDbPolyFaceMeshVertex
 10
-8.088908195495605
 20
-43.10000228881835
 30
5.879176616668701
 70
   192
  0
VERTEX
  5
1A4
330
FC
100
AcDbEntity
  8
0
 62
   151
100
AcDbVertex
100
AcDbPolyFaceMeshVertex
 10
-9.999999046325683
 20
-43.10000228881835
 30
0.0
 70
   192
  0
VERTEX
  5
1A5
330
FC
100
AcDbEntity
  8
0
 62
   151
100
AcDbVertex
100
AcDbPolyFaceMeshVertex
 10
-8.088908195495605
 20
-43.10000228881835
 30
-5.879176616668701
 70
   192
  0
VERTEX
  5
1A6
330
FC
100
AcDbEntity
  8
0
 62
   151
100
AcDbVertex
100
AcDbPolyFaceMeshVertex
 10
-3.089138031005859
 20
-43.10000228881835
 30
-9.510327339172363
 70
   192
  0
VERTEX
  5
1A7
330
FC
100
AcDbEntity
  8
0
 62
   151
100
AcDbVertex
100
AcDbPolyFaceMeshVertex
 10
3.089138031005859
 20
-43.10000228881835
 30
-9.510327339172363
 70
   192
  0
VERTEX
  5
1A8
330
FC
100
AcDbEntity
  8
0
 62
   151
100
AcDbVertex
100
AcDbPolyFaceMeshVertex
 10
17.31938934326172
 20
-18.59999847412109
 30
10.00160598754883
 70
   192
  0
VERTEX
  5
1A9
330
FC
100
AcDbEntity
  8
0
 62
   151
100
AcDbVertex
100
AcDbPolyFaceMeshVertex
 10
20.0
 20
-18.59999847412109
 30
0.0
 70
   192
  0
VERTEX
  5
1AA
330
FC
100
AcDbEntity
  8
0
 62
   151
100
AcDbVertex
100
AcDbPolyFaceMeshVertex
 10
-20.0
 20
-18.59999847412109
 30
0.0
 70
   192
  0
VERTEX
  5
1AB
330
FC
100
AcDbEntity
  8
0
 62
   151
100
AcDbVertex
100
AcDbPolyFaceMeshVertex
 10
-17.31938934326172
 20
-18.59999847412109
 30
-10.00160598754883
 70
   192
  0
VERTEX
  5
1AC
330
FC
100
AcDbEntity
  8
0
 62
   151
100
AcDbVertex
100
AcDbPolyFaceMeshVertex
 10
-17.31938934326172
 20
-18.59999847412109
 30
10.00160598754883
 70
   192
  0
VERTEX
  5
1AD
330
FC
100
AcDbEntity
  8
0
 62
   151
100
AcDbVertex
100
AcDbPolyFaceMeshVertex
 10
-9.998431205749511
 20
-18.59999847412109
 30
17.3209171295166
 70
   192
  0
VERTEX
  5
1AE
330
FC
100
AcDbEntity
  8
0
 62
   151
100
AcDbVertex
100
AcDbPolyFaceMeshVertex
 10
9.998432159423828
 20
-18.59999847412109
 30
17.3209171295166
 70
   192
  0
VERTEX
  5
1AF
330
FC
100
AcDbEntity
  8
0
 62
   151
100
AcDbVertex
100
AcDbPolyFaceMeshVertex
 10
0.0
 20
-18.59999847412109
 30
19.99945449829101
 70
   192
  0
VERTEX
  5
1B0
330
FC
100
AcDbEntity
  8
0
 62
   151
100
AcDbVertex
100
AcDbPolyFaceMeshVertex
 10
17.32051086425781
 20
-18.09999847412109
 30
-10.0
 70
   192
  0
VERTEX
  5
1B1
330
FC
100
AcDbEntity
  8
0
 62
   151
100
AcDbVertex
100
AcDbPolyFaceMeshVertex
 10
20.5681037902832
 20
-18.09999847412109
 30
-11.875
 70
   192
  0
VERTEX
  5
1B2
330
FC
100
AcDbEntity
  8
0
 62
   151
100
AcDbVertex
100
AcDbPolyFaceMeshVertex
 10
23.75
 20
-18.09999847412109
 30
0.0
 70
   192
  0
VERTEX
  5
1B3
330
FC
100
AcDbEntity
  8
0
 62
   151
100
AcDbVertex
100
AcDbPolyFaceMeshVertex
 10
20.0
 20
-18.09999847412109
 30
0.0
 70
   192
  0
VERTEX
  5
1B4
330
FC
100
AcDbEntity
  8
0
 62
   151
100
AcDbVertex
100
AcDbPolyFaceMeshVertex
 10
20.5681037902832
 20
-18.09999847412109
 30
11.87500095367431
 70
   192
  0
VERTEX
  5
1B5
330
FC
100
AcDbEntity
  8
0
 62
   151
100
AcDbVertex
100
AcDbPolyFaceMeshVertex
 10
10.0
 20
-18.09999847412109
 30
-17.32051086425781
 70
   192
  0
VERTEX
  5
1B6
330
FC
100
AcDbEntity
  8
0
 62
   151
100
AcDbVertex
100
AcDbPolyFaceMeshVertex
 10
11.87500095367431
 20
-18.09999847412109
 30
-20.5681037902832
 70
   192
  0
VERTEX
  5
1B7
330
FC
100
AcDbEntity
  8
0
 62
   151
100
AcDbVertex
100
AcDbPolyFaceMeshVertex
 10
-11.87500095367431
 20
-18.09999847412109
 30
-20.5681037902832
 70
   192
  0
VERTEX
  5
1B8
330
FC
100
AcDbEntity
  8
0
 62
   151
100
AcDbVertex
100
AcDbPolyFaceMeshVertex
 10
0.0
 20
-18.09999847412109
 30
-23.75
 70
   192
  0
VERTEX
  5
1B9
330
FC
100
AcDbEntity
  8
0
 62
   151
100
AcDbVertex
100
AcDbPolyFaceMeshVertex
 10
0.0
 20
-18.09999847412109
 30
-20.0
 70
   192
  0
VERTEX
  5
1BA
330
FC
100
AcDbEntity
  8
0
 62
   151
100
AcDbVertex
100
AcDbPolyFaceMeshVertex
 10
-9.999999046325683
 20
-18.09999847412109
 30
-17.32051086425781
 70
   192
  0
VERTEX
  5
1BB
330
FC
100
AcDbEntity
  8
0
 62
   151
100
AcDbVertex
100
AcDbPolyFaceMeshVertex
 10
-20.5681037902832
 20
-18.09999847412109
 30
-11.87500095367431
 70
   192
  0
VERTEX
  5
1BC
330
FC
100
AcDbEntity
  8
0
 62
   151
100
AcDbVertex
100
AcDbPolyFaceMeshVertex
 10
-20.0
 20
-18.09999847412109
 30
0.0
 70
   192
  0
VERTEX
  5
1BD
330
FC
100
AcDbEntity
  8
0
 62
   151
100
AcDbVertex
100
AcDbPolyFaceMeshVertex
 10
-23.75
 20
-18.09999847412109
 30
0.0
 70
   192
  0
VERTEX
  5
1BE
330
FC
100
AcDbEntity
  8
0
 62
   151
100
AcDbVertex
100
AcDbPolyFaceMeshVertex
 10
-17.32051086425781
 20
-18.09999847412109
 30
-10.0
 70
   192
  0
VERTEX
  5
1BF
330
FC
100
AcDbEntity
  8
0
 62
   151
100
AcDbVertex
100
AcDbPolyFaceMeshVertex
 10
-17.32051086425781
 20
-18.09999847412109
 30
10.0
 70
   192
  0
VERTEX
  5
1C0
330
FC
100
AcDbEntity
  8
0
 62
   151
100
AcDbVertex
100
AcDbPolyFaceMeshVertex
 10
-20.5681037902832
 20
-18.09999847412109
 30
11.875
 70
   192
  0
VERTEX
  5
1C1
330
FC
100
AcDbEntity
  8
0
 62
   151
100
AcDbVertex
100
AcDbPolyFaceMeshVertex
 10
-9.999999046325683
 20
-18.09999847412109
 30
17.32051086425781
 70
   192
  0
VERTEX
  5
1C2
330
FC
100
AcDbEntity
  8
0
 62
   151
100
AcDbVertex
100
AcDbPolyFaceMeshVertex
 10
-11.87500095367431
 20
-18.09999847412109
 30
20.5681037902832
 70
   192
  0
VERTEX
  5
1C3
330
FC
100
AcDbEntity
  8
0
 62
   151
100
AcDbVertex
100
AcDbPolyFaceMeshVertex
 10
11.87500095367431
 20
-18.09999847412109
 30
20.5681037902832
 70
   192
  0
VERTEX
  5
1C4
330
FC
100
AcDbEntity
  8
0
 62
   151
100
AcDbVertex
100
AcDbPolyFaceMeshVertex
 10
0.0
 20
-18.09999847412109
 30
23.75
 70
   192
  0
VERTEX
  5
1C5
330
FC
100
AcDbEntity
  8
0
 62
   151
100
AcDbVertex
100
AcDbPolyFaceMeshVertex
 10
0.0
 20
-18.09999847412109
 30
20.0
 70
   192
  0
VERTEX
  5
1C6
330
FC
100
AcDbEntity
  8
0
 62
   151
100
AcDbVertex
100
AcDbPolyFaceMeshVertex
 10
10.0
 20
-18.09999847412109
 30
17.32051086425781
 70
   192
  0
VERTEX
  5
1C7
330
FC
100
AcDbEntity
  8
0
 62
   151
100
AcDbVertex
100
AcDbPolyFaceMeshVertex
 10
17.32050895690918
 20
-18.09999847412109
 30
10.0
 70
   192
  0
VERTEX
  5
1C8
330
FC
100
AcDbEntity
  8
0
 62
   151
100
AcDbVertex
100
AcDbPolyFaceMeshVertex
 10
17.31938934326172
 20
-18.59999847412109
 30
-10.00160598754883
 70
   192
  0
VERTEX
  5
1C9
330
FC
100
AcDbEntity
  8
0
 62
   151
100
AcDbVertex
100
AcDbPolyFaceMeshVertex
 10
-9.998431205749511
 20
-18.59999847412109
 30
-17.3209171295166
 70
   192
  0
VERTEX
  5
1CA
330
FC
100
AcDbEntity
  8
0
 62
   151
100
AcDbVertex
100
AcDbPolyFaceMeshVertex
 10
0.0
 20
-18.59999847412109
 30
-19.99945449829101
 70
   192
  0
VERTEX
  5
1CB
330
FC
100
AcDbEntity
  8
0
 62
   151
100
AcDbVertex
100
AcDbPolyFaceMeshVertex
 10
9.998432159423828
 20
-18.59999847412109
 30
-17.3209171295166
 70
   192
  0
VERTEX
  5
1CC
330
FC
100
AcDbEntity
  8
0
 62
   151
100
AcDbVertex
100
AcDbPolyFaceMeshVertex
 10
19.95000076293945
 20
-43.10000228881835
 30
0.0
 70
   192
  0
VERTEX
  5
1CD
330
FC
100
AcDbEntity
  8
0
 62
   151
100
AcDbVertex
100
AcDbPolyFaceMeshVertex
 10
17.27579689025879
 20
-43.10000228881835
 30
-9.976346015930175
 70
   192
  0
VERTEX
  5
1CE
330
FC
100
AcDbEntity
  8
0
 62
   151
100
AcDbVertex
100
AcDbPolyFaceMeshVertex
 10
-17.27579879760742
 20
-43.10000228881835
 30
9.976346015930175
 70
   192
  0
VERTEX
  5
1CF
330
FC
100
AcDbEntity
  8
0
 62
   151
100
AcDbVertex
100
AcDbPolyFaceMeshVertex
 10
17.27579689025879
 20
-43.10000228881835
 30
9.976346015930175
 70
   192
  0
VERTEX
  5
1D0
330
FC
100
AcDbEntity
  8
0
 62
   151
100
AcDbVertex
100
AcDbPolyFaceMeshVertex
 10
-19.95000076293945
 20
-43.10000228881835
 30
0.0
 70
   192
  0
VERTEX
  5
1D1
330
FC
100
AcDbEntity
  8
0
 62
   151
100
AcDbVertex
100
AcDbPolyFaceMeshVertex
 10
-8.088908195495605
 20
-89.0
 30
5.879176616668701
 70
   192
  0
VERTEX
  5
1D2
330
FC
100
AcDbEntity
  8
0
 62
   151
100
AcDbVertex
100
AcDbPolyFaceMeshVertex
 10
-9.999999046325683
 20
-59.29999923706055
 30
0.0
 70
   192
  0
VERTEX
  5
1D3
330
FC
100
AcDbEntity
  8
0
 62
   151
100
AcDbVertex
100
AcDbPolyFaceMeshVertex
 10
-9.999999046325683
 20
-89.0
 30
0.0
 70
   192
  0
VERTEX
  5
1D4
330
FC
100
AcDbEntity
  8
0
 62
   151
100
AcDbVertex
100
AcDbPolyFaceMeshVertex
 10
-8.088908195495605
 20
-59.29999923706055
 30
-5.879176616668701
 70
   192
  0
VERTEX
  5
1D5
330
FC
100
AcDbEntity
  8
0
 62
   151
100
AcDbVertex
100
AcDbPolyFaceMeshVertex
 10
-9.504467964172363
 20
-89.00000762939454
 30
6.908032417297363
 70
   192
  0
VERTEX
  5
1D6
330
FC
100
AcDbEntity
  8
0
 62
   151
100
AcDbVertex
100
AcDbPolyFaceMeshVertex
 10
-8.088908195495605
 20
-89.0
 30
-5.879176616668701
 70
   192
  0
VERTEX
  5
1D7
330
FC
100
AcDbEntity
  8
0
 62
   151
100
AcDbVertex
100
AcDbPolyFaceMeshVertex
 10
-11.74999904632568
 20
-89.0
 30
0.0
 70
   192
  0
VERTEX
  5
1D8
330
FC
100
AcDbEntity
  8
0
 62
   151
100
AcDbVertex
100
AcDbPolyFaceMeshVertex
 10
-8.088908195495605
 20
-59.29999923706055
 30
5.879176616668701
 70
   192
  0
VERTEX
  5
1D9
330
FC
100
AcDbEntity
  8
0
 62
   151
100
AcDbVertex
100
AcDbPolyFaceMeshVertex
 10
-9.137751579284667
 20
-59.29999923706055
 30
11.17295265197754
 70
   192
  0
VERTEX
  5
1DA
330
FC
100
AcDbEntity
  8
0
 62
   151
100
AcDbVertex
100
AcDbPolyFaceMeshVertex
 10
-9.137751579284667
 20
-59.29999923706055
 30
-11.17295265197754
 70
   192
  0
VERTEX
  5
1DB
330
FC
100
AcDbEntity
  8
0
 62
   151
100
AcDbVertex
100
AcDbPolyFaceMeshVertex
 10
-14.2449369430542
 20
-59.29999923706055
 30
2.327048540115356
 70
   192
  0
VERTEX
  5
1DC
330
FC
100
AcDbEntity
  8
0
 62
   151
100
AcDbVertex
100
AcDbPolyFaceMeshVertex
 10
-3.089138031005859
 20
-89.0
 30
9.510327339172363
 70
   192
  0
VERTEX
  5
1DD
330
FC
100
AcDbEntity
  8
0
 62
   151
100
AcDbVertex
100
AcDbPolyFaceMeshVertex
 10
-3.089138031005859
 20
-59.29999923706055
 30
9.510327339172363
 70
   192
  0
VERTEX
  5
1DE
330
FC
100
AcDbEntity
  8
0
 62
   151
100
AcDbVertex
100
AcDbPolyFaceMeshVertex
 10
-7.217362403869628
 20
-59.29999923706055
 30
12.49971961975097
 70
   192
  0
VERTEX
  5
1DF
330
FC
100
AcDbEntity
  8
0
 62
   151
100
AcDbVertex
100
AcDbPolyFaceMeshVertex
 10
3.089138031005859
 20
-89.00000762939454
 30
9.510327339172363
 70
   192
  0
VERTEX
  5
1E0
330
FC
100
AcDbEntity
  8
0
 62
   151
100
AcDbVertex
100
AcDbPolyFaceMeshVertex
 10
3.089138031005859
 20
-59.29999923706055
 30
9.510327339172363
 70
   192
  0
VERTEX
  5
1E1
330
FC
100
AcDbEntity
  8
0
 62
   151
100
AcDbVertex
100
AcDbPolyFaceMeshVertex
 10
-5.107184410095214
 20
-59.29999923706055
 30
13.5
 70
   192
  0
VERTEX
  5
1E2
330
FC
100
AcDbEntity
  8
0
 62
   151
100
AcDbVertex
100
AcDbPolyFaceMeshVertex
 10
8.088909149169921
 20
-89.0
 30
5.879176616668701
 70
   192
  0
VERTEX
  5
1E3
330
FC
100
AcDbEntity
  8
0
 62
   151
100
AcDbVertex
100
AcDbPolyFaceMeshVertex
 10
8.088909149169921
 20
-59.29999923706055
 30
5.879176616668701
 70
   192
  0
VERTEX
  5
1E4
330
FC
100
AcDbEntity
  8
0
 62
   151
100
AcDbVertex
100
AcDbPolyFaceMeshVertex
 10
5.107184886932373
 20
-59.29999923706055
 30
13.5
 70
   192
  0
VERTEX
  5
1E5
330
FC
100
AcDbEntity
  8
0
 62
   151
100
AcDbVertex
100
AcDbPolyFaceMeshVertex
 10
10.0
 20
-89.0
 30
0.0
 70
   192
  0
VERTEX
  5
1E6
330
FC
100
AcDbEntity
  8
0
 62
   151
100
AcDbVertex
100
AcDbPolyFaceMeshVertex
 10
10.0
 20
-59.29999923706055
 30
0.0
 70
   192
  0
VERTEX
  5
1E7
330
FC
100
AcDbEntity
  8
0
 62
   151
100
AcDbVertex
100
AcDbPolyFaceMeshVertex
 10
9.137750625610351
 20
-59.29999923706055
 30
11.17295265197754
 70
   192
  0
VERTEX
  5
1E8
330
FC
100
AcDbEntity
  8
0
 62
   151
100
AcDbVertex
100
AcDbPolyFaceMeshVertex
 10
7.217362880706787
 20
-59.29999923706055
 30
12.49971961975097
 70
   192
  0
VERTEX
  5
1E9
330
FC
100
AcDbEntity
  8
0
 62
   151
100
AcDbVertex
100
AcDbPolyFaceMeshVertex
 10
8.088909149169921
 20
-89.0
 30
-5.879176616668701
 70
   192
  0
VERTEX
  5
1EA
330
FC
100
AcDbEntity
  8
0
 62
   151
100
AcDbVertex
100
AcDbPolyFaceMeshVertex
 10
8.088909149169921
 20
-59.29999923706055
 30
-5.879176616668701
 70
   192
  0
VERTEX
  5
1EB
330
FC
100
AcDbEntity
  8
0
 62
   151
100
AcDbVertex
100
AcDbPolyFaceMeshVertex
 10
9.137750625610351
 20
-59.29999923706055
 30
-11.17295265197754
 70
   192
  0
VERTEX
  5
1EC
330
FC
100
AcDbEntity
  8
0
 62
   151
100
AcDbVertex
100
AcDbPolyFaceMeshVertex
 10
14.24493598937988
 20
-59.29999923706055
 30
-2.327048540115356
 70
   192
  0
VERTEX
  5
1ED
330
FC
100
AcDbEntity
  8
0
 62
   151
100
AcDbVertex
100
AcDbPolyFaceMeshVertex
 10
11.75
 20
-89.0
 30
0.0
 70
   192
  0
VERTEX
  5
1EE
330
FC
100
AcDbEntity
  8
0
 62
   151
100
AcDbVertex
100
AcDbPolyFaceMeshVertex
 10
9.504467964172363
 20
-89.00000762939454
 30
-6.908032417297363
 70
   192
  0
VERTEX
  5
1EF
330
FC
100
AcDbEntity
  8
0
 62
   151
100
AcDbVertex
100
AcDbPolyFaceMeshVertex
 10
9.504467964172363
 20
-89.0
 30
6.908032417297363
 70
   192
  0
VERTEX
  5
1F0
330
FC
100
AcDbEntity
  8
0
 62
   151
100
AcDbVertex
100
AcDbPolyFaceMeshVertex
 10
-3.629736900329589
 20
-89.0
 30
11.17463493347168
 70
   192
  0
VERTEX
  5
1F1
330
FC
100
AcDbEntity
  8
0
 62
   151
100
AcDbVertex
100
AcDbPolyFaceMeshVertex
 10
3.629736900329589
 20
-89.0
 30
11.17463397979736
 70
   192
  0
VERTEX
  5
1F2
330
FC
100
AcDbEntity
  8
0
 62
   151
100
AcDbVertex
100
AcDbPolyFaceMeshVertex
 10
-17.27579879760742
 20
-43.10000228881835
 30
-9.976346015930175
 70
   192
  0
VERTEX
  5
1F3
330
FC
100
AcDbEntity
  8
0
 62
   151
100
AcDbVertex
100
AcDbPolyFaceMeshVertex
 10
3.089138031005859
 20
-89.0
 30
-9.510327339172363
 70
   192
  0
VERTEX
  5
1F4
330
FC
100
AcDbEntity
  8
0
 62
   151
100
AcDbVertex
100
AcDbPolyFaceMeshVertex
 10
3.089138031005859
 20
-59.29999923706055
 30
-9.510327339172363
 70
   192
  0
VERTEX
  5
1F5
330
FC
100
AcDbEntity
  8
0
 62
   151
100
AcDbVertex
100
AcDbPolyFaceMeshVertex
 10
7.217362880706787
 20
-59.29999923706055
 30
-12.49971961975097
 70
   192
  0
VERTEX
  5
1F6
330
FC
100
AcDbEntity
  8
0
 62
   151
100
AcDbVertex
100
AcDbPolyFaceMeshVertex
 10
-3.089138031005859
 20
-89.00000762939454
 30
-9.510327339172363
 70
   192
  0
VERTEX
  5
1F7
330
FC
100
AcDbEntity
  8
0
 62
   151
100
AcDbVertex
100
AcDbPolyFaceMeshVertex
 10
-3.089138031005859
 20
-59.29999923706055
 30
-9.510327339172363
 70
   192
  0
VERTEX
  5
1F8
330
FC
100
AcDbEntity
  8
0
 62
   151
100
AcDbVertex
100
AcDbPolyFaceMeshVertex
 10
5.107184886932373
 20
-59.29999923706055
 30
-13.5
 70
   192
  0
VERTEX
  5
1F9
330
FC
100
AcDbEntity
  8
0
 62
   151
100
AcDbVertex
100
AcDbPolyFaceMeshVertex
 10
-5.107184410095214
 20
-59.29999923706055
 30
-13.5
 70
   192
  0
VERTEX
  5
1FA
330
FC
100
AcDbEntity
  8
0
 62
   151
100
AcDbVertex
100
AcDbPolyFaceMeshVertex
 10
-7.217362403869628
 20
-59.29999923706055
 30
-12.49971961975097
 70
   192
  0
VERTEX
  5
1FB
330
FC
100
AcDbEntity
  8
0
 62
   151
100
AcDbVertex
100
AcDbPolyFaceMeshVertex
 10
-9.504467964172363
 20
-89.0
 30
-6.908032417297363
 70
   192
  0
VERTEX
  5
1FC
330
FC
100
AcDbEntity
  8
0
 62
   151
100
AcDbVertex
100
AcDbPolyFaceMeshVertex
 10
3.629736900329589
 20
-89.0
 30
-11.17463493347168
 70
   192
  0
VERTEX
  5
1FD
330
FC
100
AcDbEntity
  8
0
 62
   151
100
AcDbVertex
100
AcDbPolyFaceMeshVertex
 10
-3.629736900329589
 20
-89.0
 30
-11.17463397979736
 70
   192
  0
VERTEX
  5
1FE
330
FC
100
AcDbEntity
  8
0
 62
   151
100
AcDbVertex
100
AcDbPolyFaceMeshVertex
 10
17.27609062194824
 20
-46.29999923706054
 30
9.976600646972656
 70
   192
  0
VERTEX
  5
1FF
330
FC
100
AcDbEntity
  8
0
 62
   151
100
AcDbVertex
100
AcDbPolyFaceMeshVertex
 10
19.95000076293945
 20
-46.29999923706054
 30
0.0
 70
   192
  0
VERTEX
  5
200
330
FC
100
AcDbEntity
  8
0
 62
   151
100
AcDbVertex
100
AcDbPolyFaceMeshVertex
 10
20.0
 20
-46.29999923706054
 30
0.0
 70
   192
  0
VERTEX
  5
201
330
FC
100
AcDbEntity
  8
0
 62
   151
100
AcDbVertex
100
AcDbPolyFaceMeshVertex
 10
17.27609062194824
 20
-46.29999923706054
 30
-9.976600646972656
 70
   192
  0
VERTEX
  5
202
330
FC
100
AcDbEntity
  8
0
 62
   151
100
AcDbVertex
100
AcDbPolyFaceMeshVertex
 10
17.31909561157226
 20
-46.29999923706054
 30
-10.00134944915771
 70
   192
  0
VERTEX
  5
203
330
FC
100
AcDbEntity
  8
0
 62
   151
100
AcDbVertex
100
AcDbPolyFaceMeshVertex
 10
9.976346015930175
 20
-43.10000228881835
 30
17.27579689025879
 70
   192
  0
VERTEX
  5
204
330
FC
100
AcDbEntity
  8
0
 62
   151
100
AcDbVertex
100
AcDbPolyFaceMeshVertex
 10
9.973435401916503
 20
-46.29999923706054
 30
17.27761650085449
 70
   192
  0
VERTEX
  5
205
330
FC
100
AcDbEntity
  8
0
 62
   151
100
AcDbVertex
100
AcDbPolyFaceMeshVertex
 10
17.31909561157226
 20
-46.29999923706054
 30
10.00135040283203
 70
   192
  0
VERTEX
  5
206
330
FC
100
AcDbEntity
  8
0
 62
   151
100
AcDbVertex
100
AcDbPolyFaceMeshVertex
 10
0.0
 20
-43.09999847412109
 30
19.95000076293945
 70
   192
  0
VERTEX
  5
207
330
FC
100
AcDbEntity
  8
0
 62
   151
100
AcDbVertex
100
AcDbPolyFaceMeshVertex
 10
0.0
 20
-46.29999923706054
 30
19.9494571685791
 70
   192
  0
VERTEX
  5
208
330
FC
100
AcDbEntity
  8
0
 62
   151
100
AcDbVertex
100
AcDbPolyFaceMeshVertex
 10
10.00135040283203
 20
-46.29999923706054
 30
17.31909561157226
 70
   192
  0
VERTEX
  5
209
330
FC
100
AcDbEntity
  8
0
 62
   151
100
AcDbVertex
100
AcDbPolyFaceMeshVertex
 10
-9.976346015930175
 20
-43.10000228881835
 30
17.27579689025879
 70
   192
  0
VERTEX
  5
20A
330
FC
100
AcDbEntity
  8
0
 62
   151
100
AcDbVertex
100
AcDbPolyFaceMeshVertex
 10
-9.973435401916503
 20
-46.29999923706054
 30
17.27761650085449
 70
   192
  0
VERTEX
  5
20B
330
FC
100
AcDbEntity
  8
0
 62
   151
100
AcDbVertex
100
AcDbPolyFaceMeshVertex
 10
-10.00134944915771
 20
-46.29999923706054
 30
17.31909561157226
 70
   192
  0
VERTEX
  5
20C
330
FC
100
AcDbEntity
  8
0
 62
   151
100
AcDbVertex
100
AcDbPolyFaceMeshVertex
 10
0.0
 20
-46.29999923706054
 30
20.0
 70
   192
  0
VERTEX
  5
20D
330
FC
100
AcDbEntity
  8
0
 62
   151
100
AcDbVertex
100
AcDbPolyFaceMeshVertex
 10
-17.27609252929687
 20
-46.29999923706054
 30
9.976600646972656
 70
   192
  0
VERTEX
  5
20E
330
FC
100
AcDbEntity
  8
0
 62
   151
100
AcDbVertex
100
AcDbPolyFaceMeshVertex
 10
-17.31909561157226
 20
-46.29999923706054
 30
10.00134944915771
 70
   192
  0
VERTEX
  5
20F
330
FC
100
AcDbEntity
  8
0
 62
   151
100
AcDbVertex
100
AcDbPolyFaceMeshVertex
 10
-19.95000076293945
 20
-46.29999923706054
 30
0.0
 70
   192
  0
VERTEX
  5
210
330
FC
100
AcDbEntity
  8
0
 62
   151
100
AcDbVertex
100
AcDbPolyFaceMeshVertex
 10
-17.27609252929687
 20
-46.29999923706054
 30
-9.976600646972656
 70
   192
  0
VERTEX
  5
211
330
FC
100
AcDbEntity
  8
0
 62
   151
100
AcDbVertex
100
AcDbPolyFaceMeshVertex
 10
-20.0
 20
-46.29999923706054
 30
0.0
 70
   192
  0
VERTEX
  5
212
330
FC
100
AcDbEntity
  8
0
 62
   151
100
AcDbVertex
100
AcDbPolyFaceMeshVertex
 10
9.976346015930175
 20
-43.10000228881835
 30
-17.27579689025879
 70
   192
  0
VERTEX
  5
213
330
FC
100
AcDbEntity
  8
0
 62
   151
100
AcDbVertex
100
AcDbPolyFaceMeshVertex
 10
-9.976346015930175
 20
-43.10000228881835
 30
-17.27579689025879
 70
   192
  0
VERTEX
  5
214
330
FC
100
AcDbEntity
  8
0
 62
   151
100
AcDbVertex
100
AcDbPolyFaceMeshVertex
 10
0.0
 20
-43.09999847412109
 30
-19.95000076293945
 70
   192
  0
VERTEX
  5
215
330
FC
100
AcDbEntity
  8
0
 62
   151
100
AcDbVertex
100
AcDbPolyFaceMeshVertex
 10
-9.973435401916503
 20
-46.29999923706054
 30
-17.27761650085449
 70
   192
  0
VERTEX
  5
216
330
FC
100
AcDbEntity
  8
0
 62
   151
100
AcDbVertex
100
AcDbPolyFaceMeshVertex
 10
0.0
 20
-46.29999923706054
 30
-19.9494571685791
 70
   192
  0
VERTEX
  5
217
330
FC
100
AcDbEntity
  8
0
 62
   151
100
AcDbVertex
100
AcDbPolyFaceMeshVertex
 10
9.973435401916503
 20
-46.29999923706054
 30
-17.27761650085449
 70
   192
  0
VERTEX
  5
218
330
FC
100
AcDbEntity
  8
0
 62
   151
100
AcDbVertex
100
AcDbPolyFaceMeshVertex
 10
-17.31909561157226
 20
-46.29999923706054
 30
-10.00135040283203
 70
   192
  0
VERTEX
  5
219
330
FC
100
AcDbEntity
  8
0
 62
   151
100
AcDbVertex
100
AcDbPolyFaceMeshVertex
 10
-10.00134944915771
 20
-46.29999923706054
 30
-17.31909561157226
 70
   192
  0
VERTEX
  5
21A
330
FC
100
AcDbEntity
  8
0
 62
   151
100
AcDbVertex
100
AcDbPolyFaceMeshVertex
 10
10.00135040283203
 20
-46.29999923706054
 30
-17.31909561157226
 70
   192
  0
VERTEX
  5
21B
330
FC
100
AcDbEntity
  8
0
 62
   151
100
AcDbVertex
100
AcDbPolyFaceMeshVertex
 10
0.0
 20
-46.29999923706054
 30
-20.0
 70
   192
  0
VERTEX
  5
21C
330
FC
100
AcDbEntity
  8
0
 62
   151
100
AcDbVertex
100
AcDbPolyFaceMeshVertex
 10
15.58845710754394
 20
-50.29999542236328
 30
0.0
 70
   192
  0
VERTEX
  5
21D
330
FC
100
AcDbEntity
  8
0
 62
   151
100
AcDbVertex
100
AcDbPolyFaceMeshVertex
 10
14.24493598937988
 20
-59.29999923706055
 30
2.327048540115356
 70
   192
  0
VERTEX
  5
21E
330
FC
100
AcDbEntity
  8
0
 62
   151
100
AcDbVertex
100
AcDbPolyFaceMeshVertex
 10
14.4337100982666
 20
-59.29999923706055
 30
0.0
 70
   192
  0
VERTEX
  5
21F
330
FC
100
AcDbEntity
  8
0
 62
   151
100
AcDbVertex
100
AcDbPolyFaceMeshVertex
 10
14.90785694122314
 20
-58.39822006225586
 30
-1.178834557533264
 70
   192
  0
VERTEX
  5
220
330
FC
100
AcDbEntity
  8
0
 62
   151
100
AcDbVertex
100
AcDbPolyFaceMeshVertex
 10
8.47485065460205
 20
-58.39825057983398
 30
-12.32112789154053
 70
   192
  0
VERTEX
  5
221
330
FC
100
AcDbEntity
  8
0
 62
   151
100
AcDbVertex
100
AcDbPolyFaceMeshVertex
 10
6.433027744293212
 20
-58.39822006225586
 30
-13.5
 70
   192
  0
VERTEX
  5
222
330
FC
100
AcDbEntity
  8
0
 62
   151
100
AcDbVertex
100
AcDbPolyFaceMeshVertex
 10
7.794228553771972
 20
-57.29999923706055
 30
-13.5
 70
   192
  0
VERTEX
  5
223
330
FC
100
AcDbEntity
  8
0
 62
   151
100
AcDbVertex
100
AcDbPolyFaceMeshVertex
 10
7.794228553771972
 20
-50.29999542236328
 30
-13.5
 70
   192
  0
VERTEX
  5
224
330
FC
100
AcDbEntity
  8
0
 62
   151
100
AcDbVertex
100
AcDbPolyFaceMeshVertex
 10
-6.432984352111816
 20
-58.39825057983398
 30
-13.5
 70
   192
  0
VERTEX
  5
225
330
FC
100
AcDbEntity
  8
0
 62
   151
100
AcDbVertex
100
AcDbPolyFaceMeshVertex
 10
-8.474829673767089
 20
-58.39822006225586
 30
-12.32116508483886
 70
   192
  0
VERTEX
  5
226
330
FC
100
AcDbEntity
  8
0
 62
   151
100
AcDbVertex
100
AcDbPolyFaceMeshVertex
 10
-7.794228553771972
 20
-57.29999923706055
 30
-13.5
 70
   192
  0
VERTEX
  5
227
330
FC
100
AcDbEntity
  8
0
 62
   151
100
AcDbVertex
100
AcDbPolyFaceMeshVertex
 10
-14.2449369430542
 20
-59.29999923706055
 30
-2.327048540115356
 70
   192
  0
VERTEX
  5
228
330
FC
100
AcDbEntity
  8
0
 62
   151
100
AcDbVertex
100
AcDbPolyFaceMeshVertex
 10
-7.794228553771972
 20
-50.29999542236328
 30
-13.5
 70
   192
  0
VERTEX
  5
229
330
FC
100
AcDbEntity
  8
0
 62
   151
100
AcDbVertex
100
AcDbPolyFaceMeshVertex
 10
-14.43371105194092
 20
-59.29999923706055
 30
0.0
 70
   192
  0
VERTEX
  5
22A
330
FC
100
AcDbEntity
  8
0
 62
   151
100
AcDbVertex
100
AcDbPolyFaceMeshVertex
 10
-14.90783596038818
 20
-58.39825057983398
 30
-1.178872346878051
 70
   192
  0
VERTEX
  5
22B
330
FC
100
AcDbEntity
  8
0
 62
   151
100
AcDbVertex
100
AcDbPolyFaceMeshVertex
 10
-14.90785694122314
 20
-58.39822006225586
 30
1.178834557533264
 70
   192
  0
VERTEX
  5
22C
330
FC
100
AcDbEntity
  8
0
 62
   151
100
AcDbVertex
100
AcDbPolyFaceMeshVertex
 10
-15.58845806121826
 20
-57.29999923706055
 30
0.0
 70
   192
  0
VERTEX
  5
22D
330
FC
100
AcDbEntity
  8
0
 62
   151
100
AcDbVertex
100
AcDbPolyFaceMeshVertex
 10
-15.58845806121826
 20
-50.29999542236328
 30
0.0
 70
   192
  0
VERTEX
  5
22E
330
FC
100
AcDbEntity
  8
0
 62
   151
100
AcDbVertex
100
AcDbPolyFaceMeshVertex
 10
-8.47485065460205
 20
-58.39825057983398
 30
12.32112789154053
 70
   192
  0
VERTEX
  5
22F
330
FC
100
AcDbEntity
  8
0
 62
   151
100
AcDbVertex
100
AcDbPolyFaceMeshVertex
 10
-6.433028221130371
 20
-58.39822006225586
 30
13.5
 70
   192
  0
VERTEX
  5
230
330
FC
100
AcDbEntity
  8
0
 62
   151
100
AcDbVertex
100
AcDbPolyFaceMeshVertex
 10
-7.794228553771972
 20
-57.29999923706055
 30
13.5
 70
   192
  0
VERTEX
  5
231
330
FC
100
AcDbEntity
  8
0
 62
   151
100
AcDbVertex
100
AcDbPolyFaceMeshVertex
 10
-7.794228553771972
 20
-50.29999542236328
 30
13.5
 70
   192
  0
VERTEX
  5
232
330
FC
100
AcDbEntity
  8
0
 62
   151
100
AcDbVertex
100
AcDbPolyFaceMeshVertex
 10
6.432983875274658
 20
-58.39825057983398
 30
13.5
 70
   192
  0
VERTEX
  5
233
330
FC
100
AcDbEntity
  8
0
 62
   151
100
AcDbVertex
100
AcDbPolyFaceMeshVertex
 10
8.474828720092773
 20
-58.39822006225586
 30
12.32116508483886
 70
   192
  0
VERTEX
  5
234
330
FC
100
AcDbEntity
  8
0
 62
   151
100
AcDbVertex
100
AcDbPolyFaceMeshVertex
 10
7.794228553771972
 20
-57.29999923706055
 30
13.5
 70
   192
  0
VERTEX
  5
235
330
FC
100
AcDbEntity
  8
0
 62
   151
100
AcDbVertex
100
AcDbPolyFaceMeshVertex
 10
7.794228553771972
 20
-50.29999542236328
 30
13.5
 70
   192
  0
VERTEX
  5
236
330
FC
100
AcDbEntity
  8
0
 62
   151
100
AcDbVertex
100
AcDbPolyFaceMeshVertex
 10
14.90783500671386
 20
-58.39825057983398
 30
1.178872346878051
 70
   192
  0
VERTEX
  5
237
330
FC
100
AcDbEntity
  8
0
 62
   151
100
AcDbVertex
100
AcDbPolyFaceMeshVertex
 10
15.58845710754394
 20
-57.29999923706055
 30
0.0
 70
   192
  0
VERTEX
  5
238
330
FC
100
AcDbEntity
  8
0
 62
   151
100
AcDbVertex
100
AcDbPolyFaceMeshVertex
 10
-9.009066581726074
 20
-50.29999542236328
 30
-15.58321952819824
 70
   192
  0
VERTEX
  5
239
330
FC
100
AcDbEntity
  8
0
 62
   151
100
AcDbVertex
100
AcDbPolyFaceMeshVertex
 10
-15.5979528427124
 20
-50.29999923706054
 30
-8.982169151306152
 70
   192
  0
VERTEX
  5
23A
330
FC
100
AcDbEntity
  8
0
 62
   151
100
AcDbVertex
100
AcDbPolyFaceMeshVertex
 10
18.0
 20
-50.29999923706054
 30
0.0
 70
   192
  0
VERTEX
  5
23B
330
FC
100
AcDbEntity
  8
0
 62
   151
100
AcDbVertex
100
AcDbPolyFaceMeshVertex
 10
15.59794807434082
 20
-50.29999923706054
 30
-8.982181549072265
 70
   192
  0
VERTEX
  5
23C
330
FC
100
AcDbEntity
  8
0
 62
   151
100
AcDbVertex
100
AcDbPolyFaceMeshVertex
 10
9.009056091308593
 20
-50.29999923706054
 30
-15.58322715759277
 70
   192
  0
VERTEX
  5
23D
330
FC
100
AcDbEntity
  8
0
 62
   151
100
AcDbVertex
100
AcDbPolyFaceMeshVertex
 10
15.59795379638672
 20
-50.29999923706054
 30
8.982169151306152
 70
   192
  0
VERTEX
  5
23E
330
FC
100
AcDbEntity
  8
0
 62
   151
100
AcDbVertex
100
AcDbPolyFaceMeshVertex
 10
9.00906753540039
 20
-50.29999542236328
 30
15.58321952819824
 70
   192
  0
VERTEX
  5
23F
330
FC
100
AcDbEntity
  8
0
 62
   151
100
AcDbVertex
100
AcDbPolyFaceMeshVertex
 10
-18.0
 20
-50.29999923706054
 30
0.0
 70
   192
  0
VERTEX
  5
240
330
FC
100
AcDbEntity
  8
0
 62
   151
100
AcDbVertex
100
AcDbPolyFaceMeshVertex
 10
-15.59794902801513
 20
-50.29999923706054
 30
8.982181549072265
 70
   192
  0
VERTEX
  5
241
330
FC
100
AcDbEntity
  8
0
 62
   151
100
AcDbVertex
100
AcDbPolyFaceMeshVertex
 10
-9.009055137634277
 20
-50.29999923706054
 30
15.58322715759277
 70
   192
  0
VERTEX
  5
242
330
FC
100
AcDbEntity
  8
0
 62
   151
100
AcDbVertex
100
AcDbPolyFaceMeshVertex
 10
19.41421508789062
 20
-49.71421432495117
 30
-0.0000000351301424
 70
   192
  0
VERTEX
  5
243
330
FC
100
AcDbEntity
  8
0
 62
   151
100
AcDbVertex
100
AcDbPolyFaceMeshVertex
 10
16.81320190429687
 20
-49.71421432495117
 30
9.707106590270996
 70
   192
  0
VERTEX
  5
244
330
FC
100
AcDbEntity
  8
0
 62
   151
100
AcDbVertex
100
AcDbPolyFaceMeshVertex
 10
16.81320190429687
 20
-49.71421432495117
 30
-9.707107543945312
 70
   192
  0
VERTEX
  5
245
330
FC
100
AcDbEntity
  8
0
 62
   151
100
AcDbVertex
100
AcDbPolyFaceMeshVertex
 10
-0.0000066757202148
 20
-50.29999923706054
 30
-17.99918746948242
 70
   192
  0
VERTEX
  5
246
330
FC
100
AcDbEntity
  8
0
 62
   151
100
AcDbVertex
100
AcDbPolyFaceMeshVertex
 10
9.707107543945312
 20
-49.71421432495117
 30
-16.81320190429687
 70
   192
  0
VERTEX
  5
247
330
FC
100
AcDbEntity
  8
0
 62
   151
100
AcDbVertex
100
AcDbPolyFaceMeshVertex
 10
0.0
 20
-49.71421432495117
 30
-19.41421508789062
 70
   192
  0
VERTEX
  5
248
330
FC
100
AcDbEntity
  8
0
 62
   151
100
AcDbVertex
100
AcDbPolyFaceMeshVertex
 10
-16.81320190429687
 20
-49.71421432495117
 30
-9.707106590270996
 70
   192
  0
VERTEX
  5
249
330
FC
100
AcDbEntity
  8
0
 62
   151
100
AcDbVertex
100
AcDbPolyFaceMeshVertex
 10
-9.707106590270996
 20
-49.71421432495117
 30
-16.81320190429687
 70
   192
  0
VERTEX
  5
24A
330
FC
100
AcDbEntity
  8
0
 62
   151
100
AcDbVertex
100
AcDbPolyFaceMeshVertex
 10
-19.41421508789062
 20
-49.71421432495117
 30
0.0000000351301424
 70
   192
  0
VERTEX
  5
24B
330
FC
100
AcDbEntity
  8
0
 62
   151
100
AcDbVertex
100
AcDbPolyFaceMeshVertex
 10
-16.81320190429687
 20
-49.71421432495117
 30
9.707107543945312
 70
   192
  0
VERTEX
  5
24C
330
FC
100
AcDbEntity
  8
0
 62
   151
100
AcDbVertex
100
AcDbPolyFaceMeshVertex
 10
0.0000066757202148
 20
-50.29999923706054
 30
17.99918746948242
 70
   192
  0
VERTEX
  5
24D
330
FC
100
AcDbEntity
  8
0
 62
   151
100
AcDbVertex
100
AcDbPolyFaceMeshVertex
 10
-9.707106590270996
 20
-49.71421432495117
 30
16.81320190429687
 70
   192
  0
VERTEX
  5
24E
330
FC
100
AcDbEntity
  8
0
 62
   151
100
AcDbVertex
100
AcDbPolyFaceMeshVertex
 10
0.0
 20
-49.71421432495117
 30
19.41421508789062
 70
   192
  0
VERTEX
  5
24F
330
FC
100
AcDbEntity
  8
0
 62
   151
100
AcDbVertex
100
AcDbPolyFaceMeshVertex
 10
9.707106590270996
 20
-49.71421432495117
 30
16.81320190429687
 70
   192
  0
VERTEX
  5
250
330
FC
100
AcDbEntity
  8
0
 62
   151
100
AcDbVertex
100
AcDbPolyFaceMeshVertex
 10
-17.32051086425781
 20
-48.29999923706054
 30
10.0
 70
   192
  0
VERTEX
  5
251
330
FC
100
AcDbEntity
  8
0
 62
   151
100
AcDbVertex
100
AcDbPolyFaceMeshVertex
 10
-20.0
 20
-48.29999923706054
 30
0.0
 70
   192
  0
VERTEX
  5
252
330
FC
100
AcDbEntity
  8
0
 62
   151
100
AcDbVertex
100
AcDbPolyFaceMeshVertex
 10
-17.32051086425781
 20
-48.29999923706054
 30
-10.0
 70
   192
  0
VERTEX
  5
253
330
FC
100
AcDbEntity
  8
0
 62
   151
100
AcDbVertex
100
AcDbPolyFaceMeshVertex
 10
-9.999999046325683
 20
-48.29999923706054
 30
17.32051086425781
 70
   192
  0
VERTEX
  5
254
330
FC
100
AcDbEntity
  8
0
 62
   151
100
AcDbVertex
100
AcDbPolyFaceMeshVertex
 10
0.0
 20
-48.29999923706054
 30
20.0
 70
   192
  0
VERTEX
  5
255
330
FC
100
AcDbEntity
  8
0
 62
   151
100
AcDbVertex
100
AcDbPolyFaceMeshVertex
 10
10.0
 20
-48.29999923706054
 30
17.32051086425781
 70
   192
  0
VERTEX
  5
256
330
FC
100
AcDbEntity
  8
0
 62
   151
100
AcDbVertex
100
AcDbPolyFaceMeshVertex
 10
17.32051086425781
 20
-48.29999923706054
 30
10.0
 70
   192
  0
VERTEX
  5
257
330
FC
100
AcDbEntity
  8
0
 62
   151
100
AcDbVertex
100
AcDbPolyFaceMeshVertex
 10
20.0
 20
-48.29999923706054
 30
0.0
 70
   192
  0
VERTEX
  5
258
330
FC
100
AcDbEntity
  8
0
 62
   151
100
AcDbVertex
100
AcDbPolyFaceMeshVertex
 10
17.32051086425781
 20
-48.29999923706054
 30
-10.0
 70
   192
  0
VERTEX
  5
259
330
FC
100
AcDbEntity
  8
0
 62
   151
100
AcDbVertex
100
AcDbPolyFaceMeshVertex
 10
-9.999999046325683
 20
-48.29999923706054
 30
-17.32051086425781
 70
   192
  0
VERTEX
  5
25A
330
FC
100
AcDbEntity
  8
0
 62
   151
100
AcDbVertex
100
AcDbPolyFaceMeshVertex
 10
0.0
 20
-48.29999923706054
 30
-20.0
 70
   192
  0
VERTEX
  5
25B
330
FC
100
AcDbEntity
  8
0
 62
   151
100
AcDbVertex
100
AcDbPolyFaceMeshVertex
 10
10.0
 20
-48.29999923706054
 30
-17.32051086425781
 70
   192
  0
VERTEX
  5
25C
330
FC
100
AcDbEntity
  8
0
 62
   151
100
AcDbVertex
100
AcDbPolyFaceMeshVertex
 10
-22.96047973632813
 20
-258.0
 30
-13.23004817962646
 70
   192
  0
VERTEX
  5
25D
330
FC
100
AcDbEntity
  8
0
 62
   151
100
AcDbVertex
100
AcDbPolyFaceMeshVertex
 10
22.96048736572266
 20
-258.0
 30
-13.2300329208374
 70
   192
  0
VERTEX
  5
25E
330
FC
100
AcDbEntity
  8
0
 62
   151
100
AcDbVertex
100
AcDbPolyFaceMeshVertex
 10
26.5
 20
-258.0
 30
0.0
 70
   192
  0
VERTEX
  5
25F
330
FC
100
AcDbEntity
  8
0
 62
   151
100
AcDbVertex
100
AcDbPolyFaceMeshVertex
 10
27.91421127319336
 20
-257.4142150878906
 30
-0.0000000229401849
 70
   192
  0
VERTEX
  5
260
330
FC
100
AcDbEntity
  8
0
 62
   151
100
AcDbVertex
100
AcDbPolyFaceMeshVertex
 10
-26.5
 20
-258.0
 30
0.0
 70
   192
  0
VERTEX
  5
261
330
FC
100
AcDbEntity
  8
0
 62
   151
100
AcDbVertex
100
AcDbPolyFaceMeshVertex
 10
22.96047973632813
 20
-258.0
 30
13.23004817962646
 70
   192
  0
VERTEX
  5
262
330
FC
100
AcDbEntity
  8
0
 62
   151
100
AcDbVertex
100
AcDbPolyFaceMeshVertex
 10
24.17441940307617
 20
-257.4142150878906
 30
13.95710754394531
 70
   192
  0
VERTEX
  5
263
330
FC
100
AcDbEntity
  8
0
 62
   151
100
AcDbVertex
100
AcDbPolyFaceMeshVertex
 10
-13.26283931732177
 20
-258.0
 30
-22.94141006469727
 70
   192
  0
VERTEX
  5
264
330
FC
100
AcDbEntity
  8
0
 62
   151
100
AcDbVertex
100
AcDbPolyFaceMeshVertex
 10
13.26285457611084
 20
-258.0
 30
-22.9414005279541
 70
   192
  0
VERTEX
  5
265
330
FC
100
AcDbEntity
  8
0
 62
   151
100
AcDbVertex
100
AcDbPolyFaceMeshVertex
 10
24.17441940307617
 20
-257.4142150878906
 30
-13.957106590271
 70
   192
  0
VERTEX
  5
266
330
FC
100
AcDbEntity
  8
0
 62
   151
100
AcDbVertex
100
AcDbPolyFaceMeshVertex
 10
0.0000095367431641
 20
-258.0
 30
-26.5
 70
   192
  0
VERTEX
  5
267
330
FC
100
AcDbEntity
  8
0
 62
   151
100
AcDbVertex
100
AcDbPolyFaceMeshVertex
 10
13.957106590271
 20
-257.4142150878906
 30
-24.17441940307617
 70
   192
  0
VERTEX
  5
268
330
FC
100
AcDbEntity
  8
0
 62
   151
100
AcDbVertex
100
AcDbPolyFaceMeshVertex
 10
0.0
 20
-257.4142150878906
 30
-27.914213180542
 70
   192
  0
VERTEX
  5
269
330
FC
100
AcDbEntity
  8
0
 62
   151
100
AcDbVertex
100
AcDbPolyFaceMeshVertex
 10
-24.17441940307617
 20
-257.4142150878906
 30
-13.95710754394531
 70
   192
  0
VERTEX
  5
26A
330
FC
100
AcDbEntity
  8
0
 62
   151
100
AcDbVertex
100
AcDbPolyFaceMeshVertex
 10
-13.957106590271
 20
-257.4142150878906
 30
-24.17441749572754
 70
   192
  0
VERTEX
  5
26B
330
FC
100
AcDbEntity
  8
0
 62
   151
100
AcDbVertex
100
AcDbPolyFaceMeshVertex
 10
-22.96048736572266
 20
-258.0
 30
13.2300329208374
 70
   192
  0
VERTEX
  5
26C
330
FC
100
AcDbEntity
  8
0
 62
   151
100
AcDbVertex
100
AcDbPolyFaceMeshVertex
 10
-27.91421508789063
 20
-257.4142150878906
 30
0.0000000229401849
 70
   192
  0
VERTEX
  5
26D
330
FC
100
AcDbEntity
  8
0
 62
   151
100
AcDbVertex
100
AcDbPolyFaceMeshVertex
 10
13.26283836364746
 20
-258.0
 30
22.94141006469727
 70
   192
  0
VERTEX
  5
26E
330
FC
100
AcDbEntity
  8
0
 62
   151
100
AcDbVertex
100
AcDbPolyFaceMeshVertex
 10
-13.26285457611084
 20
-258.0
 30
22.9414005279541
 70
   192
  0
VERTEX
  5
26F
330
FC
100
AcDbEntity
  8
0
 62
   151
100
AcDbVertex
100
AcDbPolyFaceMeshVertex
 10
-24.17441940307617
 20
-257.4142150878906
 30
13.957106590271
 70
   192
  0
VERTEX
  5
270
330
FC
100
AcDbEntity
  8
0
 62
   151
100
AcDbVertex
100
AcDbPolyFaceMeshVertex
 10
-0.0000095367431641
 20
-258.0
 30
26.5
 70
   192
  0
VERTEX
  5
271
330
FC
100
AcDbEntity
  8
0
 62
   151
100
AcDbVertex
100
AcDbPolyFaceMeshVertex
 10
-13.957106590271
 20
-257.4142150878906
 30
24.17441940307617
 70
   192
  0
VERTEX
  5
272
330
FC
100
AcDbEntity
  8
0
 62
   151
100
AcDbVertex
100
AcDbPolyFaceMeshVertex
 10
0.0
 20
-257.4142150878906
 30
27.914213180542
 70
   192
  0
VERTEX
  5
273
330
FC
100
AcDbEntity
  8
0
 62
   151
100
AcDbVertex
100
AcDbPolyFaceMeshVertex
 10
13.957106590271
 20
-257.4142150878906
 30
24.17441749572754
 70
   192
  0
VERTEX
  5
274
330
FC
100
AcDbEntity
  8
0
 62
   151
100
AcDbVertex
100
AcDbPolyFaceMeshVertex
 10
24.68172454833985
 20
-256.0
 30
-14.24999904632568
 70
   192
  0
VERTEX
  5
275
330
FC
100
AcDbEntity
  8
0
 62
   151
100
AcDbVertex
100
AcDbPolyFaceMeshVertex
 10
24.68172454833985
 20
-110.0
 30
-14.24999904632568
 70
   192
  0
VERTEX
  5
276
330
FC
100
AcDbEntity
  8
0
 62
   151
100
AcDbVertex
100
AcDbPolyFaceMeshVertex
 10
28.5
 20
-110.0
 30
0.0
 70
   192
  0
VERTEX
  5
277
330
FC
100
AcDbEntity
  8
0
 62
   151
100
AcDbVertex
100
AcDbPolyFaceMeshVertex
 10
27.91421127319336
 20
-108.5858001708984
 30
-0.0000000228837962
 70
   192
  0
VERTEX
  5
278
330
FC
100
AcDbEntity
  8
0
 62
   151
100
AcDbVertex
100
AcDbPolyFaceMeshVertex
 10
28.5
 20
-256.0
 30
0.0
 70
   192
  0
VERTEX
  5
279
330
FC
100
AcDbEntity
  8
0
 62
   151
100
AcDbVertex
100
AcDbPolyFaceMeshVertex
 10
24.68172454833985
 20
-110.0
 30
14.24999904632568
 70
   192
  0
VERTEX
  5
27A
330
FC
100
AcDbEntity
  8
0
 62
   151
100
AcDbVertex
100
AcDbPolyFaceMeshVertex
 10
24.17441940307617
 20
-108.5858001708984
 30
13.957106590271
 70
   192
  0
VERTEX
  5
27B
330
FC
100
AcDbEntity
  8
0
 62
   151
100
AcDbVertex
100
AcDbPolyFaceMeshVertex
 10
14.25
 20
-256.0
 30
-24.68172454833985
 70
   192
  0
VERTEX
  5
27C
330
FC
100
AcDbEntity
  8
0
 62
   151
100
AcDbVertex
100
AcDbPolyFaceMeshVertex
 10
14.25
 20
-110.0
 30
-24.68172454833985
 70
   192
  0
VERTEX
  5
27D
330
FC
100
AcDbEntity
  8
0
 62
   151
100
AcDbVertex
100
AcDbPolyFaceMeshVertex
 10
24.17441940307617
 20
-108.5858001708984
 30
-13.95710754394531
 70
   192
  0
VERTEX
  5
27E
330
FC
100
AcDbEntity
  8
0
 62
   151
100
AcDbVertex
100
AcDbPolyFaceMeshVertex
 10
0.0
 20
-256.0
 30
-28.5
 70
   192
  0
VERTEX
  5
27F
330
FC
100
AcDbEntity
  8
0
 62
   151
100
AcDbVertex
100
AcDbPolyFaceMeshVertex
 10
0.0
 20
-110.0
 30
-28.5
 70
   192
  0
VERTEX
  5
280
330
FC
100
AcDbEntity
  8
0
 62
   151
100
AcDbVertex
100
AcDbPolyFaceMeshVertex
 10
13.957106590271
 20
-108.5857925415039
 30
-24.17441749572754
 70
   192
  0
VERTEX
  5
281
330
FC
100
AcDbEntity
  8
0
 62
   151
100
AcDbVertex
100
AcDbPolyFaceMeshVertex
 10
-14.24999904632568
 20
-256.0
 30
-24.68172454833985
 70
   192
  0
VERTEX
  5
282
330
FC
100
AcDbEntity
  8
0
 62
   151
100
AcDbVertex
100
AcDbPolyFaceMeshVertex
 10
-14.24999904632568
 20
-110.0
 30
-24.68172454833985
 70
   192
  0
VERTEX
  5
283
330
FC
100
AcDbEntity
  8
0
 62
   151
100
AcDbVertex
100
AcDbPolyFaceMeshVertex
 10
0.0
 20
-108.5858001708984
 30
-27.914213180542
 70
   192
  0
VERTEX
  5
284
330
FC
100
AcDbEntity
  8
0
 62
   151
100
AcDbVertex
100
AcDbPolyFaceMeshVertex
 10
-24.68172454833985
 20
-256.0
 30
-14.24999904632568
 70
   192
  0
VERTEX
  5
285
330
FC
100
AcDbEntity
  8
0
 62
   151
100
AcDbVertex
100
AcDbPolyFaceMeshVertex
 10
-24.68172454833985
 20
-110.0
 30
-14.24999904632568
 70
   192
  0
VERTEX
  5
286
330
FC
100
AcDbEntity
  8
0
 62
   151
100
AcDbVertex
100
AcDbPolyFaceMeshVertex
 10
-13.957106590271
 20
-108.5858001708984
 30
-24.17441940307617
 70
   192
  0
VERTEX
  5
287
330
FC
100
AcDbEntity
  8
0
 62
   151
100
AcDbVertex
100
AcDbPolyFaceMeshVertex
 10
-28.5
 20
-256.0
 30
0.0
 70
   192
  0
VERTEX
  5
288
330
FC
100
AcDbEntity
  8
0
 62
   151
100
AcDbVertex
100
AcDbPolyFaceMeshVertex
 10
-28.5
 20
-110.0
 30
0.0
 70
   192
  0
VERTEX
  5
289
330
FC
100
AcDbEntity
  8
0
 62
   151
100
AcDbVertex
100
AcDbPolyFaceMeshVertex
 10
-24.17441940307617
 20
-108.5858001708984
 30
-13.957106590271
 70
   192
  0
VERTEX
  5
28A
330
FC
100
AcDbEntity
  8
0
 62
   151
100
AcDbVertex
100
AcDbPolyFaceMeshVertex
 10
-24.68172454833985
 20
-256.0
 30
14.24999904632568
 70
   192
  0
VERTEX
  5
28B
330
FC
100
AcDbEntity
  8
0
 62
   151
100
AcDbVertex
100
AcDbPolyFaceMeshVertex
 10
-24.68172454833985
 20
-110.0
 30
14.24999904632568
 70
   192
  0
VERTEX
  5
28C
330
FC
100
AcDbEntity
  8
0
 62
   151
100
AcDbVertex
100
AcDbPolyFaceMeshVertex
 10
-27.91421508789063
 20
-108.5858001708984
 30
0.0000000228837962
 70
   192
  0
VERTEX
  5
28D
330
FC
100
AcDbEntity
  8
0
 62
   151
100
AcDbVertex
100
AcDbPolyFaceMeshVertex
 10
24.68172454833985
 20
-256.0
 30
14.24999904632568
 70
   192
  0
VERTEX
  5
28E
330
FC
100
AcDbEntity
  8
0
 62
   151
100
AcDbVertex
100
AcDbPolyFaceMeshVertex
 10
22.96047592163086
 20
-108.0
 30
-13.23005676269531
 70
   192
  0
VERTEX
  5
28F
330
FC
100
AcDbEntity
  8
0
 62
   151
100
AcDbVertex
100
AcDbPolyFaceMeshVertex
 10
8.695578575134277
 20
-108.0
 30
-6.319215774536132
 70
   192
  0
VERTEX
  5
290
330
FC
100
AcDbEntity
  8
0
 62
   151
100
AcDbVertex
100
AcDbPolyFaceMeshVertex
 10
10.75
 20
-108.0
 30
0.0
 70
   192
  0
VERTEX
  5
291
330
FC
100
AcDbEntity
  8
0
 62
   151
100
AcDbVertex
100
AcDbPolyFaceMeshVertex
 10
10.75
 20
-105.0
 30
0.0
 70
   192
  0
VERTEX
  5
292
330
FC
100
AcDbEntity
  8
0
 62
   151
100
AcDbVertex
100
AcDbPolyFaceMeshVertex
 10
26.50000190734863
 20
-108.0000076293945
 30
0.0
 70
   192
  0
VERTEX
  5
293
330
FC
100
AcDbEntity
  8
0
 62
   151
100
AcDbVertex
100
AcDbPolyFaceMeshVertex
 10
8.695578575134277
 20
-108.0
 30
6.319215774536132
 70
   192
  0
VERTEX
  5
294
330
FC
100
AcDbEntity
  8
0
 62
   151
100
AcDbVertex
100
AcDbPolyFaceMeshVertex
 10
8.695578575134277
 20
-105.0
 30
6.319215774536132
 70
   192
  0
VERTEX
  5
295
330
FC
100
AcDbEntity
  8
0
 62
   151
100
AcDbVertex
100
AcDbPolyFaceMeshVertex
 10
3.324139595031738
 20
-108.0
 30
-10.2227725982666
 70
   192
  0
VERTEX
  5
296
330
FC
100
AcDbEntity
  8
0
 62
   151
100
AcDbVertex
100
AcDbPolyFaceMeshVertex
 10
8.695578575134277
 20
-105.0
 30
-6.319215774536132
 70
   192
  0
VERTEX
  5
297
330
FC
100
AcDbEntity
  8
0
 62
   151
100
AcDbVertex
100
AcDbPolyFaceMeshVertex
 10
-3.324139595031738
 20
-108.0000076293945
 30
-10.2227725982666
 70
   192
  0
VERTEX
  5
298
330
FC
100
AcDbEntity
  8
0
 62
   151
100
AcDbVertex
100
AcDbPolyFaceMeshVertex
 10
3.324139595031738
 20
-105.0000076293945
 30
-10.2227725982666
 70
   192
  0
VERTEX
  5
299
330
FC
100
AcDbEntity
  8
0
 62
   151
100
AcDbVertex
100
AcDbPolyFaceMeshVertex
 10
-26.50000381469727
 20
-108.0000076293945
 30
0.0
 70
   192
  0
VERTEX
  5
29A
330
FC
100
AcDbEntity
  8
0
 62
   151
100
AcDbVertex
100
AcDbPolyFaceMeshVertex
 10
-8.695578575134277
 20
-108.0
 30
-6.319215774536132
 70
   192
  0
VERTEX
  5
29B
330
FC
100
AcDbEntity
  8
0
 62
   151
100
AcDbVertex
100
AcDbPolyFaceMeshVertex
 10
-3.324139595031738
 20
-105.0
 30
-10.2227725982666
 70
   192
  0
VERTEX
  5
29C
330
FC
100
AcDbEntity
  8
0
 62
   151
100
AcDbVertex
100
AcDbPolyFaceMeshVertex
 10
-22.96051025390625
 20
-108.0000076293945
 30
-13.22999477386474
 70
   192
  0
VERTEX
  5
29D
330
FC
100
AcDbEntity
  8
0
 62
   151
100
AcDbVertex
100
AcDbPolyFaceMeshVertex
 10
-10.74999904632568
 20
-108.0
 30
0.0
 70
   192
  0
VERTEX
  5
29E
330
FC
100
AcDbEntity
  8
0
 62
   151
100
AcDbVertex
100
AcDbPolyFaceMeshVertex
 10
-8.695578575134277
 20
-105.0
 30
-6.319215774536132
 70
   192
  0
VERTEX
  5
29F
330
FC
100
AcDbEntity
  8
0
 62
   151
100
AcDbVertex
100
AcDbPolyFaceMeshVertex
 10
-22.96047592163086
 20
-108.0
 30
13.23005676269531
 70
   192
  0
VERTEX
  5
2A0
330
FC
100
AcDbEntity
  8
0
 62
   151
100
AcDbVertex
100
AcDbPolyFaceMeshVertex
 10
-8.695578575134277
 20
-108.0
 30
6.319215774536132
 70
   192
  0
VERTEX
  5
2A1
330
FC
100
AcDbEntity
  8
0
 62
   151
100
AcDbVertex
100
AcDbPolyFaceMeshVertex
 10
-10.74999904632568
 20
-105.0
 30
0.0
 70
   192
  0
VERTEX
  5
2A2
330
FC
100
AcDbEntity
  8
0
 62
   151
100
AcDbVertex
100
AcDbPolyFaceMeshVertex
 10
-3.324139595031738
 20
-108.0
 30
10.2227725982666
 70
   192
  0
VERTEX
  5
2A3
330
FC
100
AcDbEntity
  8
0
 62
   151
100
AcDbVertex
100
AcDbPolyFaceMeshVertex
 10
-8.695578575134277
 20
-105.0
 30
6.319215774536132
 70
   192
  0
VERTEX
  5
2A4
330
FC
100
AcDbEntity
  8
0
 62
   151
100
AcDbVertex
100
AcDbPolyFaceMeshVertex
 10
3.324139595031738
 20
-108.0000076293945
 30
10.2227725982666
 70
   192
  0
VERTEX
  5
2A5
330
FC
100
AcDbEntity
  8
0
 62
   151
100
AcDbVertex
100
AcDbPolyFaceMeshVertex
 10
-3.324139595031738
 20
-105.0000076293945
 30
10.2227725982666
 70
   192
  0
VERTEX
  5
2A6
330
FC
100
AcDbEntity
  8
0
 62
   151
100
AcDbVertex
100
AcDbPolyFaceMeshVertex
 10
3.324139595031738
 20
-105.0
 30
10.2227725982666
 70
   192
  0
VERTEX
  5
2A7
330
FC
100
AcDbEntity
  8
0
 62
   151
100
AcDbVertex
100
AcDbPolyFaceMeshVertex
 10
22.96050834655762
 20
-108.0000076293945
 30
13.22999477386474
 70
   192
  0
VERTEX
  5
2A8
330
FC
100
AcDbEntity
  8
0
 62
   151
100
AcDbVertex
100
AcDbPolyFaceMeshVertex
 10
-13.26282024383545
 20
-108.0000076293945
 30
22.9414234161377
 70
   192
  0
VERTEX
  5
2A9
330
FC
100
AcDbEntity
  8
0
 62
   151
100
AcDbVertex
100
AcDbPolyFaceMeshVertex
 10
13.26288795471191
 20
-108.0
 30
22.94138145446777
 70
   192
  0
VERTEX
  5
2AA
330
FC
100
AcDbEntity
  8
0
 62
   151
100
AcDbVertex
100
AcDbPolyFaceMeshVertex
 10
0.0000410079956055
 20
-108.0
 30
26.5
 70
   192
  0
VERTEX
  5
2AB
330
FC
100
AcDbEntity
  8
0
 62
   151
100
AcDbVertex
100
AcDbPolyFaceMeshVertex
 10
13.957106590271
 20
-108.5858001708984
 30
24.17441940307617
 70
   192
  0
VERTEX
  5
2AC
330
FC
100
AcDbEntity
  8
0
 62
   151
100
AcDbVertex
100
AcDbPolyFaceMeshVertex
 10
0.0
 20
-108.5858001708984
 30
27.914213180542
 70
   192
  0
VERTEX
  5
2AD
330
FC
100
AcDbEntity
  8
0
 62
   151
100
AcDbVertex
100
AcDbPolyFaceMeshVertex
 10
-24.17441940307617
 20
-108.5858001708984
 30
13.95710754394531
 70
   192
  0
VERTEX
  5
2AE
330
FC
100
AcDbEntity
  8
0
 62
   151
100
AcDbVertex
100
AcDbPolyFaceMeshVertex
 10
-13.957106590271
 20
-108.5857925415039
 30
24.17441749572754
 70
   192
  0
VERTEX
  5
2AF
330
FC
100
AcDbEntity
  8
0
 62
   151
100
AcDbVertex
100
AcDbPolyFaceMeshVertex
 10
13.26281929016113
 20
-108.0000076293945
 30
-22.9414234161377
 70
   192
  0
VERTEX
  5
2B0
330
FC
100
AcDbEntity
  8
0
 62
   151
100
AcDbVertex
100
AcDbPolyFaceMeshVertex
 10
-13.26288890838623
 20
-108.0
 30
-22.94138145446777
 70
   192
  0
VERTEX
  5
2B1
330
FC
100
AcDbEntity
  8
0
 62
   151
100
AcDbVertex
100
AcDbPolyFaceMeshVertex
 10
-0.0000410079956055
 20
-108.0
 30
-26.5
 70
   192
  0
VERTEX
  5
2B2
330
FC
100
AcDbEntity
  8
0
 62
   151
100
AcDbVertex
100
AcDbPolyFaceMeshVertex
 10
11.75
 20
-105.0
 30
0.0
 70
   192
  0
VERTEX
  5
2B3
330
FC
100
AcDbEntity
  8
0
 62
   151
100
AcDbVertex
100
AcDbPolyFaceMeshVertex
 10
9.504467964172363
 20
-105.0000076293945
 30
6.908032417297363
 70
   192
  0
VERTEX
  5
2B4
330
FC
100
AcDbEntity
  8
0
 62
   151
100
AcDbVertex
100
AcDbPolyFaceMeshVertex
 10
9.504467964172363
 20
-105.0
 30
-6.908032417297363
 70
   192
  0
VERTEX
  5
2B5
330
FC
100
AcDbEntity
  8
0
 62
   151
100
AcDbVertex
100
AcDbPolyFaceMeshVertex
 10
-3.629736900329589
 20
-105.0
 30
-11.17463493347168
 70
   192
  0
VERTEX
  5
2B6
330
FC
100
AcDbEntity
  8
0
 62
   151
100
AcDbVertex
100
AcDbPolyFaceMeshVertex
 10
3.629736900329589
 20
-105.0
 30
-11.17463397979736
 70
   192
  0
VERTEX
  5
2B7
330
FC
100
AcDbEntity
  8
0
 62
   151
100
AcDbVertex
100
AcDbPolyFaceMeshVertex
 10
-9.504467964172363
 20
-105.0000076293945
 30
-6.908032417297363
 70
   192
  0
VERTEX
  5
2B8
330
FC
100
AcDbEntity
  8
0
 62
   151
100
AcDbVertex
100
AcDbPolyFaceMeshVertex
 10
-11.74999904632568
 20
-105.0
 30
0.0
 70
   192
  0
VERTEX
  5
2B9
330
FC
100
AcDbEntity
  8
0
 62
   151
100
AcDbVertex
100
AcDbPolyFaceMeshVertex
 10
-9.504467964172363
 20
-105.0
 30
6.908032417297363
 70
   192
  0
VERTEX
  5
2BA
330
FC
100
AcDbEntity
  8
0
 62
   151
100
AcDbVertex
100
AcDbPolyFaceMeshVertex
 10
-3.629736900329589
 20
-105.0
 30
11.17463397979736
 70
   192
  0
VERTEX
  5
2BB
330
FC
100
AcDbEntity
  8
0
 62
   151
100
AcDbVertex
100
AcDbPolyFaceMeshVertex
 10
3.629736900329589
 20
-105.0
 30
11.17463493347168
 70
   192
  0
VERTEX
  5
2BC
330
FC
100
AcDbEntity
  8
0
 62
   151
100
AcDbVertex
100
AcDbPolyFaceMeshVertex
 10
-14.24999904632568
 20
-256.0
 30
24.68172454833985
 70
   192
  0
VERTEX
  5
2BD
330
FC
100
AcDbEntity
  8
0
 62
   151
100
AcDbVertex
100
AcDbPolyFaceMeshVertex
 10
-14.24999904632568
 20
-110.0
 30
24.68172454833985
 70
   192
  0
VERTEX
  5
2BE
330
FC
100
AcDbEntity
  8
0
 62
   151
100
AcDbVertex
100
AcDbPolyFaceMeshVertex
 10
0.0
 20
-256.0
 30
28.5
 70
   192
  0
VERTEX
  5
2BF
330
FC
100
AcDbEntity
  8
0
 62
   151
100
AcDbVertex
100
AcDbPolyFaceMeshVertex
 10
0.0
 20
-110.0
 30
28.5
 70
   192
  0
VERTEX
  5
2C0
330
FC
100
AcDbEntity
  8
0
 62
   151
100
AcDbVertex
100
AcDbPolyFaceMeshVertex
 10
14.25
 20
-256.0
 30
24.68172454833985
 70
   192
  0
VERTEX
  5
2C1
330
FC
100
AcDbEntity
  8
0
 62
   151
100
AcDbVertex
100
AcDbPolyFaceMeshVertex
 10
14.25
 20
-110.0
 30
24.68172454833985
 70
   192
  0
VERTEX
  5
2C2
330
FC
100
AcDbEntity
  8
0
 62
   151
100
AcDbFaceRecord
 10
0.0
 20
0.0
 30
0.0
 70
   128
 71
     1
 72
     2
 73
     3
 74
    -1
  0
VERTEX
  5
2C3
330
FC
100
AcDbEntity
  8
0
 62
   151
100
AcDbFaceRecord
 10
0.0
 20
0.0
 30
0.0
 70
   128
 71
     4
 72
     3
 73
     2
 74
    -4
  0
VERTEX
  5
2C4
330
FC
100
AcDbEntity
  8
0
 62
   151
100
AcDbFaceRecord
 10
0.0
 20
0.0
 30
0.0
 70
   128
 71
     5
 72
     1
 73
     3
 74
    -5
  0
VERTEX
  5
2C5
330
FC
100
AcDbEntity
  8
0
 62
   151
100
AcDbFaceRecord
 10
0.0
 20
0.0
 30
0.0
 70
   128
 71
     6
 72
     5
 73
     3
 74
    -6
  0
VERTEX
  5
2C6
330
FC
100
AcDbEntity
  8
0
 62
   151
100
AcDbFaceRecord
 10
0.0
 20
0.0
 30
0.0
 70
   128
 71
     7
 72
     6
 73
     3
 74
    -7
  0
VERTEX
  5
2C7
330
FC
100
AcDbEntity
  8
0
 62
   151
100
AcDbFaceRecord
 10
0.0
 20
0.0
 30
0.0
 70
   128
 71
     4
 72
     7
 73
     3
 74
    -4
  0
VERTEX
  5
2C8
330
FC
100
AcDbEntity
  8
0
 62
   151
100
AcDbFaceRecord
 10
0.0
 20
0.0
 30
0.0
 70
   128
 71
     1
 72
     8
 73
     2
 74
    -1
  0
VERTEX
  5
2C9
330
FC
100
AcDbEntity
  8
0
 62
   151
100
AcDbFaceRecord
 10
0.0
 20
0.0
 30
0.0
 70
   128
 71
     9
 72
     2
 73
     8
 74
    -9
  0
VERTEX
  5
2CA
330
FC
100
AcDbEntity
  8
0
 62
   151
100
AcDbFaceRecord
 10
0.0
 20
0.0
 30
0.0
 70
   128
 71
     9
 72
    10
 73
     2
 74
    -9
  0
VERTEX
  5
2CB
330
FC
100
AcDbEntity
  8
0
 62
   151
100
AcDbFaceRecord
 10
0.0
 20
0.0
 30
0.0
 70
   128
 71
     4
 72
     2
 73
    10
 74
    -4
  0
VERTEX
  5
2CC
330
FC
100
AcDbEntity
  8
0
 62
   151
100
AcDbFaceRecord
 10
0.0
 20
0.0
 30
0.0
 70
   128
 71
     1
 72
    11
 73
     8
 74
    -1
  0
VERTEX
  5
2CD
330
FC
100
AcDbEntity
  8
0
 62
   151
100
AcDbFaceRecord
 10
0.0
 20
0.0
 30
0.0
 70
   128
 71
    12
 72
     8
 73
    11
 74
   -12
  0
VERTEX
  5
2CE
330
FC
100
AcDbEntity
  8
0
 62
   151
100
AcDbFaceRecord
 10
0.0
 20
0.0
 30
0.0
 70
   128
 71
     9
 72
     8
 73
    12
 74
    -9
  0
VERTEX
  5
2CF
330
FC
100
AcDbEntity
  8
0
 62
   151
100
AcDbFaceRecord
 10
0.0
 20
0.0
 30
0.0
 70
   128
 71
     1
 72
    13
 73
    11
 74
    -1
  0
VERTEX
  5
2D0
330
FC
100
AcDbEntity
  8
0
 62
   151
100
AcDbFaceRecord
 10
0.0
 20
0.0
 30
0.0
 70
   128
 71
    14
 72
    11
 73
    13
 74
   -14
  0
VERTEX
  5
2D1
330
FC
100
AcDbEntity
  8
0
 62
   151
100
AcDbFaceRecord
 10
0.0
 20
0.0
 30
0.0
 70
   128
 71
    12
 72
    11
 73
    14
 74
   -12
  0
VERTEX
  5
2D2
330
FC
100
AcDbEntity
  8
0
 62
   151
100
AcDbFaceRecord
 10
0.0
 20
0.0
 30
0.0
 70
   128
 71
    15
 72
    16
 73
    13
 74
   -15
  0
VERTEX
  5
2D3
330
FC
100
AcDbEntity
  8
0
 62
   151
100
AcDbFaceRecord
 10
0.0
 20
0.0
 30
0.0
 70
   128
 71
    17
 72
    13
 73
    16
 74
   -17
  0
VERTEX
  5
2D4
330
FC
100
AcDbEntity
  8
0
 62
   151
100
AcDbFaceRecord
 10
0.0
 20
0.0
 30
0.0
 70
   128
 71
     1
 72
    15
 73
    13
 74
    -1
  0
VERTEX
  5
2D5
330
FC
100
AcDbEntity
  8
0
 62
   151
100
AcDbFaceRecord
 10
0.0
 20
0.0
 30
0.0
 70
   128
 71
    14
 72
    13
 73
    17
 74
   -14
  0
VERTEX
  5
2D6
330
FC
100
AcDbEntity
  8
0
 62
   151
100
AcDbFaceRecord
 10
0.0
 20
0.0
 30
0.0
 70
   128
 71
     1
 72
    16
 73
    15
 74
    -1
  0
VERTEX
  5
2D7
330
FC
100
AcDbEntity
  8
0
 62
   151
100
AcDbFaceRecord
 10
0.0
 20
0.0
 30
0.0
 70
   128
 71
    18
 72
    16
 73
     1
 74
   -18
  0
VERTEX
  5
2D8
330
FC
100
AcDbEntity
  8
0
 62
   151
100
AcDbFaceRecord
 10
0.0
 20
0.0
 30
0.0
 70
   128
 71
    19
 72
    17
 73
    16
 74
   -19
  0
VERTEX
  5
2D9
330
FC
100
AcDbEntity
  8
0
 62
   151
100
AcDbFaceRecord
 10
0.0
 20
0.0
 30
0.0
 70
   128
 71
    19
 72
    16
 73
    18
 74
   -19
  0
VERTEX
  5
2DA
330
FC
100
AcDbEntity
  8
0
 62
   151
100
AcDbFaceRecord
 10
0.0
 20
0.0
 30
0.0
 70
   128
 71
     6
 72
     1
 73
     5
 74
    -6
  0
VERTEX
  5
2DB
330
FC
100
AcDbEntity
  8
0
 62
   151
100
AcDbFaceRecord
 10
0.0
 20
0.0
 30
0.0
 70
   128
 71
    20
 72
    18
 73
     1
 74
   -20
  0
VERTEX
  5
2DC
330
FC
100
AcDbEntity
  8
0
 62
   151
100
AcDbFaceRecord
 10
0.0
 20
0.0
 30
0.0
 70
   128
 71
    21
 72
    20
 73
     1
 74
   -21
  0
VERTEX
  5
2DD
330
FC
100
AcDbEntity
  8
0
 62
   151
100
AcDbFaceRecord
 10
0.0
 20
0.0
 30
0.0
 70
   128
 71
     6
 72
    21
 73
     1
 74
    -6
  0
VERTEX
  5
2DE
330
FC
100
AcDbEntity
  8
0
 62
   151
100
AcDbFaceRecord
 10
0.0
 20
0.0
 30
0.0
 70
   128
 71
     9
 72
    22
 73
    10
 74
    -9
  0
VERTEX
  5
2DF
330
FC
100
AcDbEntity
  8
0
 62
   151
100
AcDbFaceRecord
 10
0.0
 20
0.0
 30
0.0
 70
   128
 71
    23
 72
    10
 73
    22
 74
   -23
  0
VERTEX
  5
2E0
330
FC
100
AcDbEntity
  8
0
 62
   151
100
AcDbFaceRecord
 10
0.0
 20
0.0
 30
0.0
 70
   128
 71
     7
 72
    10
 73
    23
 74
    -7
  0
VERTEX
  5
2E1
330
FC
100
AcDbEntity
  8
0
 62
   151
100
AcDbFaceRecord
 10
0.0
 20
0.0
 30
0.0
 70
   128
 71
     4
 72
    10
 73
     7
 74
    -4
  0
VERTEX
  5
2E2
330
FC
100
AcDbEntity
  8
0
 62
   151
100
AcDbFaceRecord
 10
0.0
 20
0.0
 30
0.0
 70
   128
 71
     9
 72
    24
 73
    22
 74
    -9
  0
VERTEX
  5
2E3
330
FC
100
AcDbEntity
  8
0
 62
   151
100
AcDbFaceRecord
 10
0.0
 20
0.0
 30
0.0
 70
   128
 71
    25
 72
    22
 73
    24
 74
   -25
  0
VERTEX
  5
2E4
330
FC
100
AcDbEntity
  8
0
 62
   151
100
AcDbFaceRecord
 10
0.0
 20
0.0
 30
0.0
 70
   128
 71
    26
 72
    23
 73
    22
 74
   -26
  0
VERTEX
  5
2E5
330
FC
100
AcDbEntity
  8
0
 62
   151
100
AcDbFaceRecord
 10
0.0
 20
0.0
 30
0.0
 70
   128
 71
    25
 72
    26
 73
    22
 74
   -25
  0
VERTEX
  5
2E6
330
FC
100
AcDbEntity
  8
0
 62
   151
100
AcDbFaceRecord
 10
0.0
 20
0.0
 30
0.0
 70
   128
 71
    12
 72
    27
 73
    24
 74
   -12
  0
VERTEX
  5
2E7
330
FC
100
AcDbEntity
  8
0
 62
   151
100
AcDbFaceRecord
 10
0.0
 20
0.0
 30
0.0
 70
   128
 71
    28
 72
    24
 73
    27
 74
   -28
  0
VERTEX
  5
2E8
330
FC
100
AcDbEntity
  8
0
 62
   151
100
AcDbFaceRecord
 10
0.0
 20
0.0
 30
0.0
 70
   128
 71
     9
 72
    12
 73
    24
 74
    -9
  0
VERTEX
  5
2E9
330
FC
100
AcDbEntity
  8
0
 62
   151
100
AcDbFaceRecord
 10
0.0
 20
0.0
 30
0.0
 70
   128
 71
    29
 72
    25
 73
    24
 74
   -29
  0
VERTEX
  5
2EA
330
FC
100
AcDbEntity
  8
0
 62
   151
100
AcDbFaceRecord
 10
0.0
 20
0.0
 30
0.0
 70
   128
 71
    28
 72
    29
 73
    24
 74
   -28
  0
VERTEX
  5
2EB
330
FC
100
AcDbEntity
  8
0
 62
   151
100
AcDbFaceRecord
 10
0.0
 20
0.0
 30
0.0
 70
   128
 71
    14
 72
    30
 73
    27
 74
   -14
  0
VERTEX
  5
2EC
330
FC
100
AcDbEntity
  8
0
 62
   151
100
AcDbFaceRecord
 10
0.0
 20
0.0
 30
0.0
 70
   128
 71
    31
 72
    27
 73
    30
 74
   -31
  0
VERTEX
  5
2ED
330
FC
100
AcDbEntity
  8
0
 62
   151
100
AcDbFaceRecord
 10
0.0
 20
0.0
 30
0.0
 70
   128
 71
    12
 72
    14
 73
    27
 74
   -12
  0
VERTEX
  5
2EE
330
FC
100
AcDbEntity
  8
0
 62
   151
100
AcDbFaceRecord
 10
0.0
 20
0.0
 30
0.0
 70
   128
 71
    31
 72
    28
 73
    27
 74
   -31
  0
VERTEX
  5
2EF
330
FC
100
AcDbEntity
  8
0
 62
   151
100
AcDbFaceRecord
 10
0.0
 20
0.0
 30
0.0
 70
   128
 71
    17
 72
    32
 73
    30
 74
   -17
  0
VERTEX
  5
2F0
330
FC
100
AcDbEntity
  8
0
 62
   151
100
AcDbFaceRecord
 10
0.0
 20
0.0
 30
0.0
 70
   128
 71
    31
 72
    30
 73
    32
 74
   -31
  0
VERTEX
  5
2F1
330
FC
100
AcDbEntity
  8
0
 62
   151
100
AcDbFaceRecord
 10
0.0
 20
0.0
 30
0.0
 70
   128
 71
    14
 72
    17
 73
    30
 74
   -14
  0
VERTEX
  5
2F2
330
FC
100
AcDbEntity
  8
0
 62
   151
100
AcDbFaceRecord
 10
0.0
 20
0.0
 30
0.0
 70
   128
 71
    33
 72
    34
 73
    32
 74
   -33
  0
VERTEX
  5
2F3
330
FC
100
AcDbEntity
  8
0
 62
   151
100
AcDbFaceRecord
 10
0.0
 20
0.0
 30
0.0
 70
   128
 71
    35
 72
    32
 73
    34
 74
   -35
  0
VERTEX
  5
2F4
330
FC
100
AcDbEntity
  8
0
 62
   151
100
AcDbFaceRecord
 10
0.0
 20
0.0
 30
0.0
 70
   128
 71
    36
 72
    33
 73
    32
 74
   -36
  0
VERTEX
  5
2F5
330
FC
100
AcDbEntity
  8
0
 62
   151
100
AcDbFaceRecord
 10
0.0
 20
0.0
 30
0.0
 70
   128
 71
    37
 72
    36
 73
    32
 74
   -37
  0
VERTEX
  5
2F6
330
FC
100
AcDbEntity
  8
0
 62
   151
100
AcDbFaceRecord
 10
0.0
 20
0.0
 30
0.0
 70
   128
 71
    17
 72
    37
 73
    32
 74
   -17
  0
VERTEX
  5
2F7
330
FC
100
AcDbEntity
  8
0
 62
   151
100
AcDbFaceRecord
 10
0.0
 20
0.0
 30
0.0
 70
   128
 71
    35
 72
    31
 73
    32
 74
   -35
  0
VERTEX
  5
2F8
330
FC
100
AcDbEntity
  8
0
 62
   151
100
AcDbFaceRecord
 10
0.0
 20
0.0
 30
0.0
 70
   128
 71
    38
 72
    34
 73
    33
 74
   -38
  0
VERTEX
  5
2F9
330
FC
100
AcDbEntity
  8
0
 62
   151
100
AcDbFaceRecord
 10
0.0
 20
0.0
 30
0.0
 70
   128
 71
    39
 72
    34
 73
    40
 74
   -39
  0
VERTEX
  5
2FA
330
FC
100
AcDbEntity
  8
0
 62
   151
100
AcDbFaceRecord
 10
0.0
 20
0.0
 30
0.0
 70
   128
 71
    41
 72
    40
 73
    34
 74
   -41
  0
VERTEX
  5
2FB
330
FC
100
AcDbEntity
  8
0
 62
   151
100
AcDbFaceRecord
 10
0.0
 20
0.0
 30
0.0
 70
   128
 71
    35
 72
    34
 73
    39
 74
   -35
  0
VERTEX
  5
2FC
330
FC
100
AcDbEntity
  8
0
 62
   151
100
AcDbFaceRecord
 10
0.0
 20
0.0
 30
0.0
 70
   128
 71
    38
 72
    42
 73
    34
 74
   -38
  0
VERTEX
  5
2FD
330
FC
100
AcDbEntity
  8
0
 62
   151
100
AcDbFaceRecord
 10
0.0
 20
0.0
 30
0.0
 70
   128
 71
    41
 72
    34
 73
    42
 74
   -41
  0
VERTEX
  5
2FE
330
FC
100
AcDbEntity
  8
0
 62
   151
100
AcDbFaceRecord
 10
0.0
 20
0.0
 30
0.0
 70
   128
 71
    43
 72
    33
 73
    36
 74
   -43
  0
VERTEX
  5
2FF
330
FC
100
AcDbEntity
  8
0
 62
   151
100
AcDbFaceRecord
 10
0.0
 20
0.0
 30
0.0
 70
   128
 71
    44
 72
    38
 73
    33
 74
   -44
  0
VERTEX
  5
300
330
FC
100
AcDbEntity
  8
0
 62
   151
100
AcDbFaceRecord
 10
0.0
 20
0.0
 30
0.0
 70
   128
 71
    45
 72
    33
 73
    43
 74
   -45
  0
VERTEX
  5
301
330
FC
100
AcDbEntity
  8
0
 62
   151
100
AcDbFaceRecord
 10
0.0
 20
0.0
 30
0.0
 70
   128
 71
    45
 72
    46
 73
    33
 74
   -45
  0
VERTEX
  5
302
330
FC
100
AcDbEntity
  8
0
 62
   151
100
AcDbFaceRecord
 10
0.0
 20
0.0
 30
0.0
 70
   128
 71
    44
 72
    33
 73
    46
 74
   -44
  0
VERTEX
  5
303
330
FC
100
AcDbEntity
  8
0
 62
   151
100
AcDbFaceRecord
 10
0.0
 20
0.0
 30
0.0
 70
   128
 71
    47
 72
    36
 73
    37
 74
   -47
  0
VERTEX
  5
304
330
FC
100
AcDbEntity
  8
0
 62
   151
100
AcDbFaceRecord
 10
0.0
 20
0.0
 30
0.0
 70
   128
 71
    48
 72
    49
 73
    36
 74
   -48
  0
VERTEX
  5
305
330
FC
100
AcDbEntity
  8
0
 62
   151
100
AcDbFaceRecord
 10
0.0
 20
0.0
 30
0.0
 70
   128
 71
    50
 72
    36
 73
    49
 74
   -50
  0
VERTEX
  5
306
330
FC
100
AcDbEntity
  8
0
 62
   151
100
AcDbFaceRecord
 10
0.0
 20
0.0
 30
0.0
 70
   128
 71
    47
 72
    48
 73
    36
 74
   -47
  0
VERTEX
  5
307
330
FC
100
AcDbEntity
  8
0
 62
   151
100
AcDbFaceRecord
 10
0.0
 20
0.0
 30
0.0
 70
   128
 71
    50
 72
    43
 73
    36
 74
   -50
  0
VERTEX
  5
308
330
FC
100
AcDbEntity
  8
0
 62
   151
100
AcDbFaceRecord
 10
0.0
 20
0.0
 30
0.0
 70
   128
 71
    17
 72
    51
 73
    37
 74
   -17
  0
VERTEX
  5
309
330
FC
100
AcDbEntity
  8
0
 62
   151
100
AcDbFaceRecord
 10
0.0
 20
0.0
 30
0.0
 70
   128
 71
    52
 72
    37
 73
    51
 74
   -52
  0
VERTEX
  5
30A
330
FC
100
AcDbEntity
  8
0
 62
   151
100
AcDbFaceRecord
 10
0.0
 20
0.0
 30
0.0
 70
   128
 71
    52
 72
    47
 73
    37
 74
   -52
  0
VERTEX
  5
30B
330
FC
100
AcDbEntity
  8
0
 62
   151
100
AcDbFaceRecord
 10
0.0
 20
0.0
 30
0.0
 70
   128
 71
    53
 72
    54
 73
    51
 74
   -53
  0
VERTEX
  5
30C
330
FC
100
AcDbEntity
  8
0
 62
   151
100
AcDbFaceRecord
 10
0.0
 20
0.0
 30
0.0
 70
   128
 71
    52
 72
    51
 73
    54
 74
   -52
  0
VERTEX
  5
30D
330
FC
100
AcDbEntity
  8
0
 62
   151
100
AcDbFaceRecord
 10
0.0
 20
0.0
 30
0.0
 70
   128
 71
    17
 72
    53
 73
    51
 74
   -17
  0
VERTEX
  5
30E
330
FC
100
AcDbEntity
  8
0
 62
   151
100
AcDbFaceRecord
 10
0.0
 20
0.0
 30
0.0
 70
   128
 71
    41
 72
    54
 73
    53
 74
   -41
  0
VERTEX
  5
30F
330
FC
100
AcDbEntity
  8
0
 62
   151
100
AcDbFaceRecord
 10
0.0
 20
0.0
 30
0.0
 70
   128
 71
    41
 72
    55
 73
    54
 74
   -41
  0
VERTEX
  5
310
330
FC
100
AcDbEntity
  8
0
 62
   151
100
AcDbFaceRecord
 10
0.0
 20
0.0
 30
0.0
 70
   128
 71
    56
 72
    54
 73
    55
 74
   -56
  0
VERTEX
  5
311
330
FC
100
AcDbEntity
  8
0
 62
   151
100
AcDbFaceRecord
 10
0.0
 20
0.0
 30
0.0
 70
   128
 71
    56
 72
    52
 73
    54
 74
   -56
  0
VERTEX
  5
312
330
FC
100
AcDbEntity
  8
0
 62
   151
100
AcDbFaceRecord
 10
0.0
 20
0.0
 30
0.0
 70
   128
 71
    19
 72
    53
 73
    17
 74
   -19
  0
VERTEX
  5
313
330
FC
100
AcDbEntity
  8
0
 62
   151
100
AcDbFaceRecord
 10
0.0
 20
0.0
 30
0.0
 70
   128
 71
    41
 72
    53
 73
    18
 74
   -41
  0
VERTEX
  5
314
330
FC
100
AcDbEntity
  8
0
 62
   151
100
AcDbFaceRecord
 10
0.0
 20
0.0
 30
0.0
 70
   128
 71
    19
 72
    18
 73
    53
 74
   -19
  0
VERTEX
  5
315
330
FC
100
AcDbEntity
  8
0
 62
   151
100
AcDbFaceRecord
 10
0.0
 20
0.0
 30
0.0
 70
   128
 71
    57
 72
    58
 73
    23
 74
   -57
  0
VERTEX
  5
316
330
FC
100
AcDbEntity
  8
0
 62
   151
100
AcDbFaceRecord
 10
0.0
 20
0.0
 30
0.0
 70
   128
 71
     7
 72
    23
 73
    58
 74
    -7
  0
VERTEX
  5
317
330
FC
100
AcDbEntity
  8
0
 62
   151
100
AcDbFaceRecord
 10
0.0
 20
0.0
 30
0.0
 70
   128
 71
    26
 72
    57
 73
    23
 74
   -26
  0
VERTEX
  5
318
330
FC
100
AcDbEntity
  8
0
 62
   151
100
AcDbFaceRecord
 10
0.0
 20
0.0
 30
0.0
 70
   128
 71
    57
 72
    59
 73
    58
 74
   -57
  0
VERTEX
  5
319
330
FC
100
AcDbEntity
  8
0
 62
   151
100
AcDbFaceRecord
 10
0.0
 20
0.0
 30
0.0
 70
   128
 71
    60
 72
    58
 73
    59
 74
   -60
  0
VERTEX
  5
31A
330
FC
100
AcDbEntity
  8
0
 62
   151
100
AcDbFaceRecord
 10
0.0
 20
0.0
 30
0.0
 70
   128
 71
    60
 72
     7
 73
    58
 74
   -60
  0
VERTEX
  5
31B
330
FC
100
AcDbEntity
  8
0
 62
   151
100
AcDbFaceRecord
 10
0.0
 20
0.0
 30
0.0
 70
   128
 71
    61
 72
    40
 73
    59
 74
   -61
  0
VERTEX
  5
31C
330
FC
100
AcDbEntity
  8
0
 62
   151
100
AcDbFaceRecord
 10
0.0
 20
0.0
 30
0.0
 70
   128
 71
    62
 72
    59
 73
    40
 74
   -62
  0
VERTEX
  5
31D
330
FC
100
AcDbEntity
  8
0
 62
   151
100
AcDbFaceRecord
 10
0.0
 20
0.0
 30
0.0
 70
   128
 71
    57
 72
    61
 73
    59
 74
   -57
  0
VERTEX
  5
31E
330
FC
100
AcDbEntity
  8
0
 62
   151
100
AcDbFaceRecord
 10
0.0
 20
0.0
 30
0.0
 70
   128
 71
    62
 72
    60
 73
    59
 74
   -62
  0
VERTEX
  5
31F
330
FC
100
AcDbEntity
  8
0
 62
   151
100
AcDbFaceRecord
 10
0.0
 20
0.0
 30
0.0
 70
   128
 71
    63
 72
    39
 73
    40
 74
   -63
  0
VERTEX
  5
320
330
FC
100
AcDbEntity
  8
0
 62
   151
100
AcDbFaceRecord
 10
0.0
 20
0.0
 30
0.0
 70
   128
 71
    61
 72
    63
 73
    40
 74
   -61
  0
VERTEX
  5
321
330
FC
100
AcDbEntity
  8
0
 62
   151
100
AcDbFaceRecord
 10
0.0
 20
0.0
 30
0.0
 70
   128
 71
    41
 72
    62
 73
    40
 74
   -41
  0
VERTEX
  5
322
330
FC
100
AcDbEntity
  8
0
 62
   151
100
AcDbFaceRecord
 10
0.0
 20
0.0
 30
0.0
 70
   128
 71
    64
 72
    39
 73
    63
 74
   -64
  0
VERTEX
  5
323
330
FC
100
AcDbEntity
  8
0
 62
   151
100
AcDbFaceRecord
 10
0.0
 20
0.0
 30
0.0
 70
   128
 71
    65
 72
    35
 73
    39
 74
   -65
  0
VERTEX
  5
324
330
FC
100
AcDbEntity
  8
0
 62
   151
100
AcDbFaceRecord
 10
0.0
 20
0.0
 30
0.0
 70
   128
 71
    66
 72
    39
 73
    64
 74
   -66
  0
VERTEX
  5
325
330
FC
100
AcDbEntity
  8
0
 62
   151
100
AcDbFaceRecord
 10
0.0
 20
0.0
 30
0.0
 70
   128
 71
    66
 72
    65
 73
    39
 74
   -66
  0
VERTEX
  5
326
330
FC
100
AcDbEntity
  8
0
 62
   151
100
AcDbFaceRecord
 10
0.0
 20
0.0
 30
0.0
 70
   128
 71
    67
 72
    63
 73
    61
 74
   -67
  0
VERTEX
  5
327
330
FC
100
AcDbEntity
  8
0
 62
   151
100
AcDbFaceRecord
 10
0.0
 20
0.0
 30
0.0
 70
   128
 71
    68
 72
    64
 73
    63
 74
   -68
  0
VERTEX
  5
328
330
FC
100
AcDbEntity
  8
0
 62
   151
100
AcDbFaceRecord
 10
0.0
 20
0.0
 30
0.0
 70
   128
 71
    67
 72
    68
 73
    63
 74
   -67
  0
VERTEX
  5
329
330
FC
100
AcDbEntity
  8
0
 62
   151
100
AcDbFaceRecord
 10
0.0
 20
0.0
 30
0.0
 70
   128
 71
    69
 72
    61
 73
    57
 74
   -69
  0
VERTEX
  5
32A
330
FC
100
AcDbEntity
  8
0
 62
   151
100
AcDbFaceRecord
 10
0.0
 20
0.0
 30
0.0
 70
   128
 71
    70
 72
    67
 73
    61
 74
   -70
  0
VERTEX
  5
32B
330
FC
100
AcDbEntity
  8
0
 62
   151
100
AcDbFaceRecord
 10
0.0
 20
0.0
 30
0.0
 70
   128
 71
    69
 72
    70
 73
    61
 74
   -69
  0
VERTEX
  5
32C
330
FC
100
AcDbEntity
  8
0
 62
   151
100
AcDbFaceRecord
 10
0.0
 20
0.0
 30
0.0
 70
   128
 71
    71
 72
    57
 73
    26
 74
   -71
  0
VERTEX
  5
32D
330
FC
100
AcDbEntity
  8
0
 62
   151
100
AcDbFaceRecord
 10
0.0
 20
0.0
 30
0.0
 70
   128
 71
    72
 72
    69
 73
    57
 74
   -72
  0
VERTEX
  5
32E
330
FC
100
AcDbEntity
  8
0
 62
   151
100
AcDbFaceRecord
 10
0.0
 20
0.0
 30
0.0
 70
   128
 71
    71
 72
    72
 73
    57
 74
   -71
  0
VERTEX
  5
32F
330
FC
100
AcDbEntity
  8
0
 62
   151
100
AcDbFaceRecord
 10
0.0
 20
0.0
 30
0.0
 70
   128
 71
    73
 72
    26
 73
    25
 74
   -73
  0
VERTEX
  5
330
330
FC
100
AcDbEntity
  8
0
 62
   151
100
AcDbFaceRecord
 10
0.0
 20
0.0
 30
0.0
 70
   128
 71
    74
 72
    71
 73
    26
 74
   -74
  0
VERTEX
  5
331
330
FC
100
AcDbEntity
  8
0
 62
   151
100
AcDbFaceRecord
 10
0.0
 20
0.0
 30
0.0
 70
   128
 71
    73
 72
    74
 73
    26
 74
   -73
  0
VERTEX
  5
332
330
FC
100
AcDbEntity
  8
0
 62
   151
100
AcDbFaceRecord
 10
0.0
 20
0.0
 30
0.0
 70
   128
 71
    75
 72
    25
 73
    29
 74
   -75
  0
VERTEX
  5
333
330
FC
100
AcDbEntity
  8
0
 62
   151
100
AcDbFaceRecord
 10
0.0
 20
0.0
 30
0.0
 70
   128
 71
    76
 72
    25
 73
    75
 74
   -76
  0
VERTEX
  5
334
330
FC
100
AcDbEntity
  8
0
 62
   151
100
AcDbFaceRecord
 10
0.0
 20
0.0
 30
0.0
 70
   128
 71
    76
 72
    73
 73
    25
 74
   -76
  0
VERTEX
  5
335
330
FC
100
AcDbEntity
  8
0
 62
   151
100
AcDbFaceRecord
 10
0.0
 20
0.0
 30
0.0
 70
   128
 71
    77
 72
    29
 73
    28
 74
   -77
  0
VERTEX
  5
336
330
FC
100
AcDbEntity
  8
0
 62
   151
100
AcDbFaceRecord
 10
0.0
 20
0.0
 30
0.0
 70
   128
 71
    78
 72
    75
 73
    29
 74
   -78
  0
VERTEX
  5
337
330
FC
100
AcDbEntity
  8
0
 62
   151
100
AcDbFaceRecord
 10
0.0
 20
0.0
 30
0.0
 70
   128
 71
    77
 72
    78
 73
    29
 74
   -77
  0
VERTEX
  5
338
330
FC
100
AcDbEntity
  8
0
 62
   151
100
AcDbFaceRecord
 10
0.0
 20
0.0
 30
0.0
 70
   128
 71
    79
 72
    28
 73
    31
 74
   -79
  0
VERTEX
  5
339
330
FC
100
AcDbEntity
  8
0
 62
   151
100
AcDbFaceRecord
 10
0.0
 20
0.0
 30
0.0
 70
   128
 71
    80
 72
    77
 73
    28
 74
   -80
  0
VERTEX
  5
33A
330
FC
100
AcDbEntity
  8
0
 62
   151
100
AcDbFaceRecord
 10
0.0
 20
0.0
 30
0.0
 70
   128
 71
    79
 72
    80
 73
    28
 74
   -79
  0
VERTEX
  5
33B
330
FC
100
AcDbEntity
  8
0
 62
   151
100
AcDbFaceRecord
 10
0.0
 20
0.0
 30
0.0
 70
   128
 71
    81
 72
    31
 73
    35
 74
   -81
  0
VERTEX
  5
33C
330
FC
100
AcDbEntity
  8
0
 62
   151
100
AcDbFaceRecord
 10
0.0
 20
0.0
 30
0.0
 70
   128
 71
    82
 72
    79
 73
    31
 74
   -82
  0
VERTEX
  5
33D
330
FC
100
AcDbEntity
  8
0
 62
   151
100
AcDbFaceRecord
 10
0.0
 20
0.0
 30
0.0
 70
   128
 71
    81
 72
    82
 73
    31
 74
   -81
  0
VERTEX
  5
33E
330
FC
100
AcDbEntity
  8
0
 62
   151
100
AcDbFaceRecord
 10
0.0
 20
0.0
 30
0.0
 70
   128
 71
    83
 72
    81
 73
    35
 74
   -83
  0
VERTEX
  5
33F
330
FC
100
AcDbEntity
  8
0
 62
   151
100
AcDbFaceRecord
 10
0.0
 20
0.0
 30
0.0
 70
   128
 71
    65
 72
    83
 73
    35
 74
   -65
  0
VERTEX
  5
340
330
FC
100
AcDbEntity
  8
0
 62
   151
100
AcDbFaceRecord
 10
0.0
 20
0.0
 30
0.0
 70
   128
 71
    41
 72
    18
 73
    20
 74
   -41
  0
VERTEX
  5
341
330
FC
100
AcDbEntity
  8
0
 62
   151
100
AcDbFaceRecord
 10
0.0
 20
0.0
 30
0.0
 70
   128
 71
    62
 72
    20
 73
    21
 74
   -62
  0
VERTEX
  5
342
330
FC
100
AcDbEntity
  8
0
 62
   151
100
AcDbFaceRecord
 10
0.0
 20
0.0
 30
0.0
 70
   128
 71
    41
 72
    20
 73
    62
 74
   -41
  0
VERTEX
  5
343
330
FC
100
AcDbEntity
  8
0
 62
   151
100
AcDbFaceRecord
 10
0.0
 20
0.0
 30
0.0
 70
   128
 71
    60
 72
    21
 73
     6
 74
   -60
  0
VERTEX
  5
344
330
FC
100
AcDbEntity
  8
0
 62
   151
100
AcDbFaceRecord
 10
0.0
 20
0.0
 30
0.0
 70
   128
 71
    62
 72
    21
 73
    60
 74
   -62
  0
VERTEX
  5
345
330
FC
100
AcDbEntity
  8
0
 62
   151
100
AcDbFaceRecord
 10
0.0
 20
0.0
 30
0.0
 70
   128
 71
    60
 72
     6
 73
     7
 74
   -60
  0
VERTEX
  5
346
330
FC
100
AcDbEntity
  8
0
 62
   151
100
AcDbFaceRecord
 10
0.0
 20
0.0
 30
0.0
 70
   128
 71
    41
 72
    42
 73
    55
 74
   -41
  0
VERTEX
  5
347
330
FC
100
AcDbEntity
  8
0
 62
   151
100
AcDbFaceRecord
 10
0.0
 20
0.0
 30
0.0
 70
   128
 71
    84
 72
    55
 73
    42
 74
   -84
  0
VERTEX
  5
348
330
FC
100
AcDbEntity
  8
0
 62
   151
100
AcDbFaceRecord
 10
0.0
 20
0.0
 30
0.0
 70
   128
 71
    84
 72
    56
 73
    55
 74
   -84
  0
VERTEX
  5
349
330
FC
100
AcDbEntity
  8
0
 62
   151
100
AcDbFaceRecord
 10
0.0
 20
0.0
 30
0.0
 70
   128
 71
    85
 72
    42
 73
    38
 74
   -85
  0
VERTEX
  5
34A
330
FC
100
AcDbEntity
  8
0
 62
   151
100
AcDbFaceRecord
 10
0.0
 20
0.0
 30
0.0
 70
   128
 71
    85
 72
    84
 73
    42
 74
   -85
  0
VERTEX
  5
34B
330
FC
100
AcDbEntity
  8
0
 62
   151
100
AcDbFaceRecord
 10
0.0
 20
0.0
 30
0.0
 70
   128
 71
    44
 72
    85
 73
    38
 74
   -44
  0
VERTEX
  5
34C
330
FC
100
AcDbEntity
  8
0
 62
   151
100
AcDbFaceRecord
 10
0.0
 20
0.0
 30
0.0
 70
   128
 71
    86
 72
    87
 73
    88
 74
   -86
  0
VERTEX
  5
34D
330
FC
100
AcDbEntity
  8
0
 62
   151
100
AcDbFaceRecord
 10
0.0
 20
0.0
 30
0.0
 70
   128
 71
    89
 72
    88
 73
    87
 74
   -89
  0
VERTEX
  5
34E
330
FC
100
AcDbEntity
  8
0
 62
   151
100
AcDbFaceRecord
 10
0.0
 20
0.0
 30
0.0
 70
   128
 71
    90
 72
    86
 73
    88
 74
   -90
  0
VERTEX
  5
34F
330
FC
100
AcDbEntity
  8
0
 62
   151
100
AcDbFaceRecord
 10
0.0
 20
0.0
 30
0.0
 70
   128
 71
    91
 72
    90
 73
    88
 74
   -91
  0
VERTEX
  5
350
330
FC
100
AcDbEntity
  8
0
 62
   151
100
AcDbFaceRecord
 10
0.0
 20
0.0
 30
0.0
 70
   128
 71
    92
 72
    91
 73
    88
 74
   -92
  0
VERTEX
  5
351
330
FC
100
AcDbEntity
  8
0
 62
   151
100
AcDbFaceRecord
 10
0.0
 20
0.0
 30
0.0
 70
   128
 71
    92
 72
    88
 73
    89
 74
   -92
  0
VERTEX
  5
352
330
FC
100
AcDbEntity
  8
0
 62
   151
100
AcDbFaceRecord
 10
0.0
 20
0.0
 30
0.0
 70
   128
 71
    86
 72
    93
 73
    87
 74
   -86
  0
VERTEX
  5
353
330
FC
100
AcDbEntity
  8
0
 62
   151
100
AcDbFaceRecord
 10
0.0
 20
0.0
 30
0.0
 70
   128
 71
    94
 72
    87
 73
    93
 74
   -94
  0
VERTEX
  5
354
330
FC
100
AcDbEntity
  8
0
 62
   151
100
AcDbFaceRecord
 10
0.0
 20
0.0
 30
0.0
 70
   128
 71
    89
 72
    87
 73
    94
 74
   -89
  0
VERTEX
  5
355
330
FC
100
AcDbEntity
  8
0
 62
   151
100
AcDbFaceRecord
 10
0.0
 20
0.0
 30
0.0
 70
   128
 71
    95
 72
    93
 73
    86
 74
   -95
  0
VERTEX
  5
356
330
FC
100
AcDbEntity
  8
0
 62
   151
100
AcDbFaceRecord
 10
0.0
 20
0.0
 30
0.0
 70
   128
 71
    94
 72
    93
 73
    95
 74
   -94
  0
VERTEX
  5
357
330
FC
100
AcDbEntity
  8
0
 62
   151
100
AcDbFaceRecord
 10
0.0
 20
0.0
 30
0.0
 70
   128
 71
    96
 72
    86
 73
    90
 74
   -96
  0
VERTEX
  5
358
330
FC
100
AcDbEntity
  8
0
 62
   151
100
AcDbFaceRecord
 10
0.0
 20
0.0
 30
0.0
 70
   128
 71
    95
 72
    86
 73
    96
 74
   -95
  0
VERTEX
  5
359
330
FC
100
AcDbEntity
  8
0
 62
   151
100
AcDbFaceRecord
 10
0.0
 20
0.0
 30
0.0
 70
   128
 71
    91
 72
    97
 73
    90
 74
   -91
  0
VERTEX
  5
35A
330
FC
100
AcDbEntity
  8
0
 62
   151
100
AcDbFaceRecord
 10
0.0
 20
0.0
 30
0.0
 70
   128
 71
    98
 72
    90
 73
    97
 74
   -98
  0
VERTEX
  5
35B
330
FC
100
AcDbEntity
  8
0
 62
   151
100
AcDbFaceRecord
 10
0.0
 20
0.0
 30
0.0
 70
   128
 71
    96
 72
    90
 73
    98
 74
   -96
  0
VERTEX
  5
35C
330
FC
100
AcDbEntity
  8
0
 62
   151
100
AcDbFaceRecord
 10
0.0
 20
0.0
 30
0.0
 70
   128
 71
    91
 72
    99
 73
    97
 74
   -91
  0
VERTEX
  5
35D
330
FC
100
AcDbEntity
  8
0
 62
   151
100
AcDbFaceRecord
 10
0.0
 20
0.0
 30
0.0
 70
   128
 71
   100
 72
    97
 73
    99
 74
  -100
  0
VERTEX
  5
35E
330
FC
100
AcDbEntity
  8
0
 62
   151
100
AcDbFaceRecord
 10
0.0
 20
0.0
 30
0.0
 70
   128
 71
   100
 72
    98
 73
    97
 74
  -100
  0
VERTEX
  5
35F
330
FC
100
AcDbEntity
  8
0
 62
   151
100
AcDbFaceRecord
 10
0.0
 20
0.0
 30
0.0
 70
   128
 71
   101
 72
    99
 73
    91
 74
  -101
  0
VERTEX
  5
360
330
FC
100
AcDbEntity
  8
0
 62
   151
100
AcDbFaceRecord
 10
0.0
 20
0.0
 30
0.0
 70
   128
 71
   100
 72
    99
 73
   101
 74
  -100
  0
VERTEX
  5
361
330
FC
100
AcDbEntity
  8
0
 62
   151
100
AcDbFaceRecord
 10
0.0
 20
0.0
 30
0.0
 70
   128
 71
   101
 72
    91
 73
    92
 74
  -101
  0
VERTEX
  5
362
330
FC
100
AcDbEntity
  8
0
 62
   151
100
AcDbFaceRecord
 10
0.0
 20
0.0
 30
0.0
 70
   128
 71
    48
 72
   102
 73
    49
 74
   -48
  0
VERTEX
  5
363
330
FC
100
AcDbEntity
  8
0
 62
   151
100
AcDbFaceRecord
 10
0.0
 20
0.0
 30
0.0
 70
   128
 71
    46
 72
    49
 73
   102
 74
   -46
  0
VERTEX
  5
364
330
FC
100
AcDbEntity
  8
0
 62
   151
100
AcDbFaceRecord
 10
0.0
 20
0.0
 30
0.0
 70
   128
 71
   103
 72
    50
 73
    49
 74
  -103
  0
VERTEX
  5
365
330
FC
100
AcDbEntity
  8
0
 62
   151
100
AcDbFaceRecord
 10
0.0
 20
0.0
 30
0.0
 70
   128
 71
   104
 72
    49
 73
    46
 74
  -104
  0
VERTEX
  5
366
330
FC
100
AcDbEntity
  8
0
 62
   151
100
AcDbFaceRecord
 10
0.0
 20
0.0
 30
0.0
 70
   128
 71
   104
 72
   103
 73
    49
 74
  -104
  0
VERTEX
  5
367
330
FC
100
AcDbEntity
  8
0
 62
   151
100
AcDbFaceRecord
 10
0.0
 20
0.0
 30
0.0
 70
   128
 71
    48
 72
   105
 73
   102
 74
   -48
  0
VERTEX
  5
368
330
FC
100
AcDbEntity
  8
0
 62
   151
100
AcDbFaceRecord
 10
0.0
 20
0.0
 30
0.0
 70
   128
 71
   106
 72
   102
 73
   105
 74
  -106
  0
VERTEX
  5
369
330
FC
100
AcDbEntity
  8
0
 62
   151
100
AcDbFaceRecord
 10
0.0
 20
0.0
 30
0.0
 70
   128
 71
    46
 72
   102
 73
   106
 74
   -46
  0
VERTEX
  5
36A
330
FC
100
AcDbEntity
  8
0
 62
   151
100
AcDbFaceRecord
 10
0.0
 20
0.0
 30
0.0
 70
   128
 71
   107
 72
   108
 73
   105
 74
  -107
  0
VERTEX
  5
36B
330
FC
100
AcDbEntity
  8
0
 62
   151
100
AcDbFaceRecord
 10
0.0
 20
0.0
 30
0.0
 70
   128
 71
   109
 72
   105
 73
   108
 74
  -109
  0
VERTEX
  5
36C
330
FC
100
AcDbEntity
  8
0
 62
   151
100
AcDbFaceRecord
 10
0.0
 20
0.0
 30
0.0
 70
   128
 71
    48
 72
   107
 73
   105
 74
   -48
  0
VERTEX
  5
36D
330
FC
100
AcDbEntity
  8
0
 62
   151
100
AcDbFaceRecord
 10
0.0
 20
0.0
 30
0.0
 70
   128
 71
   106
 72
   105
 73
   110
 74
  -106
  0
VERTEX
  5
36E
330
FC
100
AcDbEntity
  8
0
 62
   151
100
AcDbFaceRecord
 10
0.0
 20
0.0
 30
0.0
 70
   128
 71
   109
 72
   110
 73
   105
 74
  -109
  0
VERTEX
  5
36F
330
FC
100
AcDbEntity
  8
0
 62
   151
100
AcDbFaceRecord
 10
0.0
 20
0.0
 30
0.0
 70
   128
 71
   107
 72
   111
 73
   108
 74
  -107
  0
VERTEX
  5
370
330
FC
100
AcDbEntity
  8
0
 62
   151
100
AcDbFaceRecord
 10
0.0
 20
0.0
 30
0.0
 70
   128
 71
   109
 72
   108
 73
   111
 74
  -109
  0
VERTEX
  5
371
330
FC
100
AcDbEntity
  8
0
 62
   151
100
AcDbFaceRecord
 10
0.0
 20
0.0
 30
0.0
 70
   128
 71
    44
 72
   111
 73
   107
 74
   -44
  0
VERTEX
  5
372
330
FC
100
AcDbEntity
  8
0
 62
   151
100
AcDbFaceRecord
 10
0.0
 20
0.0
 30
0.0
 70
   128
 71
   112
 72
   111
 73
    44
 74
  -112
  0
VERTEX
  5
373
330
FC
100
AcDbEntity
  8
0
 62
   151
100
AcDbFaceRecord
 10
0.0
 20
0.0
 30
0.0
 70
   128
 71
   113
 72
   111
 73
   112
 74
  -113
  0
VERTEX
  5
374
330
FC
100
AcDbEntity
  8
0
 62
   151
100
AcDbFaceRecord
 10
0.0
 20
0.0
 30
0.0
 70
   128
 71
   109
 72
   111
 73
   113
 74
  -109
  0
VERTEX
  5
375
330
FC
100
AcDbEntity
  8
0
 62
   151
100
AcDbFaceRecord
 10
0.0
 20
0.0
 30
0.0
 70
   128
 71
    98
 72
   107
 73
    48
 74
   -98
  0
VERTEX
  5
376
330
FC
100
AcDbEntity
  8
0
 62
   151
100
AcDbFaceRecord
 10
0.0
 20
0.0
 30
0.0
 70
   128
 71
   100
 72
    44
 73
   107
 74
  -100
  0
VERTEX
  5
377
330
FC
100
AcDbEntity
  8
0
 62
   151
100
AcDbFaceRecord
 10
0.0
 20
0.0
 30
0.0
 70
   128
 71
   100
 72
   107
 73
    98
 74
  -100
  0
VERTEX
  5
378
330
FC
100
AcDbEntity
  8
0
 62
   151
100
AcDbFaceRecord
 10
0.0
 20
0.0
 30
0.0
 70
   128
 71
    96
 72
    48
 73
    47
 74
   -96
  0
VERTEX
  5
379
330
FC
100
AcDbEntity
  8
0
 62
   151
100
AcDbFaceRecord
 10
0.0
 20
0.0
 30
0.0
 70
   128
 71
    96
 72
    98
 73
    48
 74
   -96
  0
VERTEX
  5
37A
330
FC
100
AcDbEntity
  8
0
 62
   151
100
AcDbFaceRecord
 10
0.0
 20
0.0
 30
0.0
 70
   128
 71
    95
 72
    47
 73
    52
 74
   -95
  0
VERTEX
  5
37B
330
FC
100
AcDbEntity
  8
0
 62
   151
100
AcDbFaceRecord
 10
0.0
 20
0.0
 30
0.0
 70
   128
 71
    95
 72
    96
 73
    47
 74
   -95
  0
VERTEX
  5
37C
330
FC
100
AcDbEntity
  8
0
 62
   151
100
AcDbFaceRecord
 10
0.0
 20
0.0
 30
0.0
 70
   128
 71
    94
 72
    52
 73
    56
 74
   -94
  0
VERTEX
  5
37D
330
FC
100
AcDbEntity
  8
0
 62
   151
100
AcDbFaceRecord
 10
0.0
 20
0.0
 30
0.0
 70
   128
 71
    94
 72
    95
 73
    52
 74
   -94
  0
VERTEX
  5
37E
330
FC
100
AcDbEntity
  8
0
 62
   151
100
AcDbFaceRecord
 10
0.0
 20
0.0
 30
0.0
 70
   128
 71
    89
 72
    56
 73
    84
 74
   -89
  0
VERTEX
  5
37F
330
FC
100
AcDbEntity
  8
0
 62
   151
100
AcDbFaceRecord
 10
0.0
 20
0.0
 30
0.0
 70
   128
 71
    89
 72
    94
 73
    56
 74
   -89
  0
VERTEX
  5
380
330
FC
100
AcDbEntity
  8
0
 62
   151
100
AcDbFaceRecord
 10
0.0
 20
0.0
 30
0.0
 70
   128
 71
   103
 72
    43
 73
    50
 74
  -103
  0
VERTEX
  5
381
330
FC
100
AcDbEntity
  8
0
 62
   151
100
AcDbFaceRecord
 10
0.0
 20
0.0
 30
0.0
 70
   128
 71
   104
 72
    45
 73
    43
 74
  -104
  0
VERTEX
  5
382
330
FC
100
AcDbEntity
  8
0
 62
   151
100
AcDbFaceRecord
 10
0.0
 20
0.0
 30
0.0
 70
   128
 71
   104
 72
    43
 73
   103
 74
  -104
  0
VERTEX
  5
383
330
FC
100
AcDbEntity
  8
0
 62
   151
100
AcDbFaceRecord
 10
0.0
 20
0.0
 30
0.0
 70
   128
 71
    44
 72
   106
 73
   110
 74
   -44
  0
VERTEX
  5
384
330
FC
100
AcDbEntity
  8
0
 62
   151
100
AcDbFaceRecord
 10
0.0
 20
0.0
 30
0.0
 70
   128
 71
   112
 72
    44
 73
   110
 74
  -112
  0
VERTEX
  5
385
330
FC
100
AcDbEntity
  8
0
 62
   151
100
AcDbFaceRecord
 10
0.0
 20
0.0
 30
0.0
 70
   128
 71
   113
 72
   112
 73
   110
 74
  -113
  0
VERTEX
  5
386
330
FC
100
AcDbEntity
  8
0
 62
   151
100
AcDbFaceRecord
 10
0.0
 20
0.0
 30
0.0
 70
   128
 71
   109
 72
   113
 73
   110
 74
  -109
  0
VERTEX
  5
387
330
FC
100
AcDbEntity
  8
0
 62
   151
100
AcDbFaceRecord
 10
0.0
 20
0.0
 30
0.0
 70
   128
 71
    44
 72
    46
 73
   106
 74
   -44
  0
VERTEX
  5
388
330
FC
100
AcDbEntity
  8
0
 62
   151
100
AcDbFaceRecord
 10
0.0
 20
0.0
 30
0.0
 70
   128
 71
   104
 72
    46
 73
    45
 74
  -104
  0
VERTEX
  5
389
330
FC
100
AcDbEntity
  8
0
 62
   151
100
AcDbFaceRecord
 10
0.0
 20
0.0
 30
0.0
 70
   128
 71
    92
 72
    84
 73
    85
 74
   -92
  0
VERTEX
  5
38A
330
FC
100
AcDbEntity
  8
0
 62
   151
100
AcDbFaceRecord
 10
0.0
 20
0.0
 30
0.0
 70
   128
 71
    92
 72
    89
 73
    84
 74
   -92
  0
VERTEX
  5
38B
330
FC
100
AcDbEntity
  8
0
 62
   151
100
AcDbFaceRecord
 10
0.0
 20
0.0
 30
0.0
 70
   128
 71
   101
 72
    85
 73
    44
 74
  -101
  0
VERTEX
  5
38C
330
FC
100
AcDbEntity
  8
0
 62
   151
100
AcDbFaceRecord
 10
0.0
 20
0.0
 30
0.0
 70
   128
 71
   101
 72
    92
 73
    85
 74
  -101
  0
VERTEX
  5
38D
330
FC
100
AcDbEntity
  8
0
 62
   151
100
AcDbFaceRecord
 10
0.0
 20
0.0
 30
0.0
 70
   128
 71
   100
 72
   101
 73
    44
 74
  -100
  0
VERTEX
  5
38E
330
FC
100
AcDbEntity
  8
0
 62
   151
100
AcDbFaceRecord
 10
0.0
 20
0.0
 30
0.0
 70
   128
 71
   114
 72
    66
 73
    64
 74
  -114
  0
VERTEX
  5
38F
330
FC
100
AcDbEntity
  8
0
 62
   151
100
AcDbFaceRecord
 10
0.0
 20
0.0
 30
0.0
 70
   128
 71
   115
 72
    64
 73
    68
 74
  -115
  0
VERTEX
  5
390
330
FC
100
AcDbEntity
  8
0
 62
   151
100
AcDbFaceRecord
 10
0.0
 20
0.0
 30
0.0
 70
   128
 71
   114
 72
    64
 73
   115
 74
  -114
  0
VERTEX
  5
391
330
FC
100
AcDbEntity
  8
0
 62
   151
100
AcDbFaceRecord
 10
0.0
 20
0.0
 30
0.0
 70
   128
 71
   116
 72
    75
 73
    78
 74
  -116
  0
VERTEX
  5
392
330
FC
100
AcDbEntity
  8
0
 62
   151
100
AcDbFaceRecord
 10
0.0
 20
0.0
 30
0.0
 70
   128
 71
   117
 72
    76
 73
    75
 74
  -117
  0
VERTEX
  5
393
330
FC
100
AcDbEntity
  8
0
 62
   151
100
AcDbFaceRecord
 10
0.0
 20
0.0
 30
0.0
 70
   128
 71
   116
 72
   117
 73
    75
 74
  -116
  0
VERTEX
  5
394
330
FC
100
AcDbEntity
  8
0
 62
   151
100
AcDbFaceRecord
 10
0.0
 20
0.0
 30
0.0
 70
   128
 71
   118
 72
    78
 73
    77
 74
  -118
  0
VERTEX
  5
395
330
FC
100
AcDbEntity
  8
0
 62
   151
100
AcDbFaceRecord
 10
0.0
 20
0.0
 30
0.0
 70
   128
 71
   116
 72
    78
 73
   119
 74
  -116
  0
VERTEX
  5
396
330
FC
100
AcDbEntity
  8
0
 62
   151
100
AcDbFaceRecord
 10
0.0
 20
0.0
 30
0.0
 70
   128
 71
   118
 72
   119
 73
    78
 74
  -118
  0
VERTEX
  5
397
330
FC
100
AcDbEntity
  8
0
 62
   151
100
AcDbFaceRecord
 10
0.0
 20
0.0
 30
0.0
 70
   128
 71
   118
 72
    77
 73
    80
 74
  -118
  0
VERTEX
  5
398
330
FC
100
AcDbEntity
  8
0
 62
   151
100
AcDbFaceRecord
 10
0.0
 20
0.0
 30
0.0
 70
   128
 71
   120
 72
    80
 73
    79
 74
  -120
  0
VERTEX
  5
399
330
FC
100
AcDbEntity
  8
0
 62
   151
100
AcDbFaceRecord
 10
0.0
 20
0.0
 30
0.0
 70
   128
 71
   118
 72
    80
 73
   120
 74
  -118
  0
VERTEX
  5
39A
330
FC
100
AcDbEntity
  8
0
 62
   151
100
AcDbFaceRecord
 10
0.0
 20
0.0
 30
0.0
 70
   128
 71
   120
 72
    79
 73
    82
 74
  -120
  0
VERTEX
  5
39B
330
FC
100
AcDbEntity
  8
0
 62
   151
100
AcDbFaceRecord
 10
0.0
 20
0.0
 30
0.0
 70
   128
 71
   121
 72
    82
 73
    81
 74
  -121
  0
VERTEX
  5
39C
330
FC
100
AcDbEntity
  8
0
 62
   151
100
AcDbFaceRecord
 10
0.0
 20
0.0
 30
0.0
 70
   128
 71
   120
 72
    82
 73
   121
 74
  -120
  0
VERTEX
  5
39D
330
FC
100
AcDbEntity
  8
0
 62
   151
100
AcDbFaceRecord
 10
0.0
 20
0.0
 30
0.0
 70
   128
 71
   122
 72
    81
 73
    83
 74
  -122
  0
VERTEX
  5
39E
330
FC
100
AcDbEntity
  8
0
 62
   151
100
AcDbFaceRecord
 10
0.0
 20
0.0
 30
0.0
 70
   128
 71
   121
 72
    81
 73
   122
 74
  -121
  0
VERTEX
  5
39F
330
FC
100
AcDbEntity
  8
0
 62
   151
100
AcDbFaceRecord
 10
0.0
 20
0.0
 30
0.0
 70
   128
 71
   122
 72
    83
 73
    65
 74
  -122
  0
VERTEX
  5
3A0
330
FC
100
AcDbEntity
  8
0
 62
   151
100
AcDbFaceRecord
 10
0.0
 20
0.0
 30
0.0
 70
   128
 71
   114
 72
    65
 73
    66
 74
  -114
  0
VERTEX
  5
3A1
330
FC
100
AcDbEntity
  8
0
 62
   151
100
AcDbFaceRecord
 10
0.0
 20
0.0
 30
0.0
 70
   128
 71
   122
 72
    65
 73
   114
 74
  -122
  0
VERTEX
  5
3A2
330
FC
100
AcDbEntity
  8
0
 62
   151
100
AcDbFaceRecord
 10
0.0
 20
0.0
 30
0.0
 70
   128
 71
   123
 72
    68
 73
    67
 74
  -123
  0
VERTEX
  5
3A3
330
FC
100
AcDbEntity
  8
0
 62
   151
100
AcDbFaceRecord
 10
0.0
 20
0.0
 30
0.0
 70
   128
 71
   124
 72
    68
 73
   123
 74
  -124
  0
VERTEX
  5
3A4
330
FC
100
AcDbEntity
  8
0
 62
   151
100
AcDbFaceRecord
 10
0.0
 20
0.0
 30
0.0
 70
   128
 71
   115
 72
    68
 73
   124
 74
  -115
  0
VERTEX
  5
3A5
330
FC
100
AcDbEntity
  8
0
 62
   151
100
AcDbFaceRecord
 10
0.0
 20
0.0
 30
0.0
 70
   128
 71
   123
 72
    67
 73
    70
 74
  -123
  0
VERTEX
  5
3A6
330
FC
100
AcDbEntity
  8
0
 62
   151
100
AcDbFaceRecord
 10
0.0
 20
0.0
 30
0.0
 70
   128
 71
   125
 72
    70
 73
    69
 74
  -125
  0
VERTEX
  5
3A7
330
FC
100
AcDbEntity
  8
0
 62
   151
100
AcDbFaceRecord
 10
0.0
 20
0.0
 30
0.0
 70
   128
 71
   123
 72
    70
 73
   125
 74
  -123
  0
VERTEX
  5
3A8
330
FC
100
AcDbEntity
  8
0
 62
   151
100
AcDbFaceRecord
 10
0.0
 20
0.0
 30
0.0
 70
   128
 71
   125
 72
    69
 73
    72
 74
  -125
  0
VERTEX
  5
3A9
330
FC
100
AcDbEntity
  8
0
 62
   151
100
AcDbFaceRecord
 10
0.0
 20
0.0
 30
0.0
 70
   128
 71
   126
 72
    72
 73
    71
 74
  -126
  0
VERTEX
  5
3AA
330
FC
100
AcDbEntity
  8
0
 62
   151
100
AcDbFaceRecord
 10
0.0
 20
0.0
 30
0.0
 70
   128
 71
   125
 72
    72
 73
   126
 74
  -125
  0
VERTEX
  5
3AB
330
FC
100
AcDbEntity
  8
0
 62
   151
100
AcDbFaceRecord
 10
0.0
 20
0.0
 30
0.0
 70
   128
 71
   127
 72
    71
 73
    74
 74
  -127
  0
VERTEX
  5
3AC
330
FC
100
AcDbEntity
  8
0
 62
   151
100
AcDbFaceRecord
 10
0.0
 20
0.0
 30
0.0
 70
   128
 71
   126
 72
    71
 73
   127
 74
  -126
  0
VERTEX
  5
3AD
330
FC
100
AcDbEntity
  8
0
 62
   151
100
AcDbFaceRecord
 10
0.0
 20
0.0
 30
0.0
 70
   128
 71
   127
 72
    74
 73
    73
 74
  -127
  0
VERTEX
  5
3AE
330
FC
100
AcDbEntity
  8
0
 62
   151
100
AcDbFaceRecord
 10
0.0
 20
0.0
 30
0.0
 70
   128
 71
   117
 72
    73
 73
    76
 74
  -117
  0
VERTEX
  5
3AF
330
FC
100
AcDbEntity
  8
0
 62
   151
100
AcDbFaceRecord
 10
0.0
 20
0.0
 30
0.0
 70
   128
 71
   127
 72
    73
 73
   117
 74
  -127
  0
VERTEX
  5
3B0
330
FC
100
AcDbEntity
  8
0
 62
   151
100
AcDbFaceRecord
 10
0.0
 20
0.0
 30
0.0
 70
   128
 71
   128
 72
   129
 73
   130
 74
  -128
  0
VERTEX
  5
3B1
330
FC
100
AcDbEntity
  8
0
 62
   151
100
AcDbFaceRecord
 10
0.0
 20
0.0
 30
0.0
 70
   128
 71
   131
 72
   130
 73
   129
 74
  -131
  0
VERTEX
  5
3B2
330
FC
100
AcDbEntity
  8
0
 62
   151
100
AcDbFaceRecord
 10
0.0
 20
0.0
 30
0.0
 70
   128
 71
   132
 72
   130
 73
   133
 74
  -132
  0
VERTEX
  5
3B3
330
FC
100
AcDbEntity
  8
0
 62
   151
100
AcDbFaceRecord
 10
0.0
 20
0.0
 30
0.0
 70
   128
 71
   134
 72
   133
 73
   130
 74
  -134
  0
VERTEX
  5
3B4
330
FC
100
AcDbEntity
  8
0
 62
   151
100
AcDbFaceRecord
 10
0.0
 20
0.0
 30
0.0
 70
   128
 71
   128
 72
   130
 73
   132
 74
  -128
  0
VERTEX
  5
3B5
330
FC
100
AcDbEntity
  8
0
 62
   151
100
AcDbFaceRecord
 10
0.0
 20
0.0
 30
0.0
 70
   128
 71
   134
 72
   130
 73
   131
 74
  -134
  0
VERTEX
  5
3B6
330
FC
100
AcDbEntity
  8
0
 62
   151
100
AcDbFaceRecord
 10
0.0
 20
0.0
 30
0.0
 70
   128
 71
   135
 72
   136
 73
   129
 74
  -135
  0
VERTEX
  5
3B7
330
FC
100
AcDbEntity
  8
0
 62
   151
100
AcDbFaceRecord
 10
0.0
 20
0.0
 30
0.0
 70
   128
 71
   137
 72
   129
 73
   136
 74
  -137
  0
VERTEX
  5
3B8
330
FC
100
AcDbEntity
  8
0
 62
   151
100
AcDbFaceRecord
 10
0.0
 20
0.0
 30
0.0
 70
   128
 71
   138
 72
   135
 73
   129
 74
  -138
  0
VERTEX
  5
3B9
330
FC
100
AcDbEntity
  8
0
 62
   151
100
AcDbFaceRecord
 10
0.0
 20
0.0
 30
0.0
 70
   128
 71
   128
 72
   138
 73
   129
 74
  -128
  0
VERTEX
  5
3BA
330
FC
100
AcDbEntity
  8
0
 62
   151
100
AcDbFaceRecord
 10
0.0
 20
0.0
 30
0.0
 70
   128
 71
   137
 72
   131
 73
   129
 74
  -137
  0
VERTEX
  5
3BB
330
FC
100
AcDbEntity
  8
0
 62
   151
100
AcDbFaceRecord
 10
0.0
 20
0.0
 30
0.0
 70
   128
 71
   135
 72
   139
 73
   136
 74
  -135
  0
VERTEX
  5
3BC
330
FC
100
AcDbEntity
  8
0
 62
   151
100
AcDbFaceRecord
 10
0.0
 20
0.0
 30
0.0
 70
   128
 71
   140
 72
   136
 73
   139
 74
  -140
  0
VERTEX
  5
3BD
330
FC
100
AcDbEntity
  8
0
 62
   151
100
AcDbFaceRecord
 10
0.0
 20
0.0
 30
0.0
 70
   128
 71
   140
 72
   137
 73
   136
 74
  -140
  0
VERTEX
  5
3BE
330
FC
100
AcDbEntity
  8
0
 62
   151
100
AcDbFaceRecord
 10
0.0
 20
0.0
 30
0.0
 70
   128
 71
   141
 72
   139
 73
   135
 74
  -141
  0
VERTEX
  5
3BF
330
FC
100
AcDbEntity
  8
0
 62
   151
100
AcDbFaceRecord
 10
0.0
 20
0.0
 30
0.0
 70
   128
 71
   141
 72
   140
 73
   139
 74
  -141
  0
VERTEX
  5
3C0
330
FC
100
AcDbEntity
  8
0
 62
   151
100
AcDbFaceRecord
 10
0.0
 20
0.0
 30
0.0
 70
   128
 71
   142
 72
   143
 73
   135
 74
  -142
  0
VERTEX
  5
3C1
330
FC
100
AcDbEntity
  8
0
 62
   151
100
AcDbFaceRecord
 10
0.0
 20
0.0
 30
0.0
 70
   128
 71
   144
 72
   135
 73
   143
 74
  -144
  0
VERTEX
  5
3C2
330
FC
100
AcDbEntity
  8
0
 62
   151
100
AcDbFaceRecord
 10
0.0
 20
0.0
 30
0.0
 70
   128
 71
   138
 72
   142
 73
   135
 74
  -138
  0
VERTEX
  5
3C3
330
FC
100
AcDbEntity
  8
0
 62
   151
100
AcDbFaceRecord
 10
0.0
 20
0.0
 30
0.0
 70
   128
 71
   144
 72
   141
 73
   135
 74
  -144
  0
VERTEX
  5
3C4
330
FC
100
AcDbEntity
  8
0
 62
   151
100
AcDbFaceRecord
 10
0.0
 20
0.0
 30
0.0
 70
   128
 71
   145
 72
   146
 73
   143
 74
  -145
  0
VERTEX
  5
3C5
330
FC
100
AcDbEntity
  8
0
 62
   151
100
AcDbFaceRecord
 10
0.0
 20
0.0
 30
0.0
 70
   128
 71
   147
 72
   143
 73
   146
 74
  -147
  0
VERTEX
  5
3C6
330
FC
100
AcDbEntity
  8
0
 62
   151
100
AcDbFaceRecord
 10
0.0
 20
0.0
 30
0.0
 70
   128
 71
   148
 72
   145
 73
   143
 74
  -148
  0
VERTEX
  5
3C7
330
FC
100
AcDbEntity
  8
0
 62
   151
100
AcDbFaceRecord
 10
0.0
 20
0.0
 30
0.0
 70
   128
 71
   142
 72
   148
 73
   143
 74
  -142
  0
VERTEX
  5
3C8
330
FC
100
AcDbEntity
  8
0
 62
   151
100
AcDbFaceRecord
 10
0.0
 20
0.0
 30
0.0
 70
   128
 71
   147
 72
   144
 73
   143
 74
  -147
  0
VERTEX
  5
3C9
330
FC
100
AcDbEntity
  8
0
 62
   151
100
AcDbFaceRecord
 10
0.0
 20
0.0
 30
0.0
 70
   128
 71
   149
 72
   150
 73
   146
 74
  -149
  0
VERTEX
  5
3CA
330
FC
100
AcDbEntity
  8
0
 62
   151
100
AcDbFaceRecord
 10
0.0
 20
0.0
 30
0.0
 70
   128
 71
   151
 72
   146
 73
   150
 74
  -151
  0
VERTEX
  5
3CB
330
FC
100
AcDbEntity
  8
0
 62
   151
100
AcDbFaceRecord
 10
0.0
 20
0.0
 30
0.0
 70
   128
 71
   145
 72
   149
 73
   146
 74
  -145
  0
VERTEX
  5
3CC
330
FC
100
AcDbEntity
  8
0
 62
   151
100
AcDbFaceRecord
 10
0.0
 20
0.0
 30
0.0
 70
   128
 71
   147
 72
   146
 73
   151
 74
  -147
  0
VERTEX
  5
3CD
330
FC
100
AcDbEntity
  8
0
 62
   151
100
AcDbFaceRecord
 10
0.0
 20
0.0
 30
0.0
 70
   128
 71
   152
 72
   153
 73
   150
 74
  -152
  0
VERTEX
  5
3CE
330
FC
100
AcDbEntity
  8
0
 62
   151
100
AcDbFaceRecord
 10
0.0
 20
0.0
 30
0.0
 70
   128
 71
   154
 72
   150
 73
   153
 74
  -154
  0
VERTEX
  5
3CF
330
FC
100
AcDbEntity
  8
0
 62
   151
100
AcDbFaceRecord
 10
0.0
 20
0.0
 30
0.0
 70
   128
 71
   155
 72
   152
 73
   150
 74
  -155
  0
VERTEX
  5
3D0
330
FC
100
AcDbEntity
  8
0
 62
   151
100
AcDbFaceRecord
 10
0.0
 20
0.0
 30
0.0
 70
   128
 71
   149
 72
   155
 73
   150
 74
  -149
  0
VERTEX
  5
3D1
330
FC
100
AcDbEntity
  8
0
 62
   151
100
AcDbFaceRecord
 10
0.0
 20
0.0
 30
0.0
 70
   128
 71
   154
 72
   151
 73
   150
 74
  -154
  0
VERTEX
  5
3D2
330
FC
100
AcDbEntity
  8
0
 62
   151
100
AcDbFaceRecord
 10
0.0
 20
0.0
 30
0.0
 70
   128
 71
   152
 72
   156
 73
   153
 74
  -152
  0
VERTEX
  5
3D3
330
FC
100
AcDbEntity
  8
0
 62
   151
100
AcDbFaceRecord
 10
0.0
 20
0.0
 30
0.0
 70
   128
 71
   157
 72
   153
 73
   156
 74
  -157
  0
VERTEX
  5
3D4
330
FC
100
AcDbEntity
  8
0
 62
   151
100
AcDbFaceRecord
 10
0.0
 20
0.0
 30
0.0
 70
   128
 71
   157
 72
   154
 73
   153
 74
  -157
  0
VERTEX
  5
3D5
330
FC
100
AcDbEntity
  8
0
 62
   151
100
AcDbFaceRecord
 10
0.0
 20
0.0
 30
0.0
 70
   128
 71
   158
 72
   156
 73
   152
 74
  -158
  0
VERTEX
  5
3D6
330
FC
100
AcDbEntity
  8
0
 62
   151
100
AcDbFaceRecord
 10
0.0
 20
0.0
 30
0.0
 70
   128
 71
   158
 72
   157
 73
   156
 74
  -158
  0
VERTEX
  5
3D7
330
FC
100
AcDbEntity
  8
0
 62
   151
100
AcDbFaceRecord
 10
0.0
 20
0.0
 30
0.0
 70
   128
 71
   159
 72
   133
 73
   152
 74
  -159
  0
VERTEX
  5
3D8
330
FC
100
AcDbEntity
  8
0
 62
   151
100
AcDbFaceRecord
 10
0.0
 20
0.0
 30
0.0
 70
   128
 71
   160
 72
   152
 73
   133
 74
  -160
  0
VERTEX
  5
3D9
330
FC
100
AcDbEntity
  8
0
 62
   151
100
AcDbFaceRecord
 10
0.0
 20
0.0
 30
0.0
 70
   128
 71
   155
 72
   159
 73
   152
 74
  -155
  0
VERTEX
  5
3DA
330
FC
100
AcDbEntity
  8
0
 62
   151
100
AcDbFaceRecord
 10
0.0
 20
0.0
 30
0.0
 70
   128
 71
   160
 72
   158
 73
   152
 74
  -160
  0
VERTEX
  5
3DB
330
FC
100
AcDbEntity
  8
0
 62
   151
100
AcDbFaceRecord
 10
0.0
 20
0.0
 30
0.0
 70
   128
 71
   161
 72
   132
 73
   133
 74
  -161
  0
VERTEX
  5
3DC
330
FC
100
AcDbEntity
  8
0
 62
   151
100
AcDbFaceRecord
 10
0.0
 20
0.0
 30
0.0
 70
   128
 71
   159
 72
   161
 73
   133
 74
  -159
  0
VERTEX
  5
3DD
330
FC
100
AcDbEntity
  8
0
 62
   151
100
AcDbFaceRecord
 10
0.0
 20
0.0
 30
0.0
 70
   128
 71
   134
 72
   160
 73
   133
 74
  -134
  0
VERTEX
  5
3DE
330
FC
100
AcDbEntity
  8
0
 62
   151
100
AcDbFaceRecord
 10
0.0
 20
0.0
 30
0.0
 70
   128
 71
   162
 72
   132
 73
   161
 74
  -162
  0
VERTEX
  5
3DF
330
FC
100
AcDbEntity
  8
0
 62
   151
100
AcDbFaceRecord
 10
0.0
 20
0.0
 30
0.0
 70
   128
 71
   163
 72
   128
 73
   132
 74
  -163
  0
VERTEX
  5
3E0
330
FC
100
AcDbEntity
  8
0
 62
   151
100
AcDbFaceRecord
 10
0.0
 20
0.0
 30
0.0
 70
   128
 71
   163
 72
   132
 73
   162
 74
  -163
  0
VERTEX
  5
3E1
330
FC
100
AcDbEntity
  8
0
 62
   151
100
AcDbFaceRecord
 10
0.0
 20
0.0
 30
0.0
 70
   128
 71
   164
 72
   161
 73
   159
 74
  -164
  0
VERTEX
  5
3E2
330
FC
100
AcDbEntity
  8
0
 62
   151
100
AcDbFaceRecord
 10
0.0
 20
0.0
 30
0.0
 70
   128
 71
   164
 72
   162
 73
   161
 74
  -164
  0
VERTEX
  5
3E3
330
FC
100
AcDbEntity
  8
0
 62
   151
100
AcDbFaceRecord
 10
0.0
 20
0.0
 30
0.0
 70
   128
 71
   165
 72
   159
 73
   155
 74
  -165
  0
VERTEX
  5
3E4
330
FC
100
AcDbEntity
  8
0
 62
   151
100
AcDbFaceRecord
 10
0.0
 20
0.0
 30
0.0
 70
   128
 71
   165
 72
   164
 73
   159
 74
  -165
  0
VERTEX
  5
3E5
330
FC
100
AcDbEntity
  8
0
 62
   151
100
AcDbFaceRecord
 10
0.0
 20
0.0
 30
0.0
 70
   128
 71
   166
 72
   155
 73
   149
 74
  -166
  0
VERTEX
  5
3E6
330
FC
100
AcDbEntity
  8
0
 62
   151
100
AcDbFaceRecord
 10
0.0
 20
0.0
 30
0.0
 70
   128
 71
   166
 72
   165
 73
   155
 74
  -166
  0
VERTEX
  5
3E7
330
FC
100
AcDbEntity
  8
0
 62
   151
100
AcDbFaceRecord
 10
0.0
 20
0.0
 30
0.0
 70
   128
 71
   167
 72
   149
 73
   145
 74
  -167
  0
VERTEX
  5
3E8
330
FC
100
AcDbEntity
  8
0
 62
   151
100
AcDbFaceRecord
 10
0.0
 20
0.0
 30
0.0
 70
   128
 71
   167
 72
   166
 73
   149
 74
  -167
  0
VERTEX
  5
3E9
330
FC
100
AcDbEntity
  8
0
 62
   151
100
AcDbFaceRecord
 10
0.0
 20
0.0
 30
0.0
 70
   128
 71
   168
 72
   145
 73
   148
 74
  -168
  0
VERTEX
  5
3EA
330
FC
100
AcDbEntity
  8
0
 62
   151
100
AcDbFaceRecord
 10
0.0
 20
0.0
 30
0.0
 70
   128
 71
   168
 72
   167
 73
   145
 74
  -168
  0
VERTEX
  5
3EB
330
FC
100
AcDbEntity
  8
0
 62
   151
100
AcDbFaceRecord
 10
0.0
 20
0.0
 30
0.0
 70
   128
 71
   169
 72
   148
 73
   142
 74
  -169
  0
VERTEX
  5
3EC
330
FC
100
AcDbEntity
  8
0
 62
   151
100
AcDbFaceRecord
 10
0.0
 20
0.0
 30
0.0
 70
   128
 71
   169
 72
   168
 73
   148
 74
  -169
  0
VERTEX
  5
3ED
330
FC
100
AcDbEntity
  8
0
 62
   151
100
AcDbFaceRecord
 10
0.0
 20
0.0
 30
0.0
 70
   128
 71
   170
 72
   142
 73
   138
 74
  -170
  0
VERTEX
  5
3EE
330
FC
100
AcDbEntity
  8
0
 62
   151
100
AcDbFaceRecord
 10
0.0
 20
0.0
 30
0.0
 70
   128
 71
   170
 72
   169
 73
   142
 74
  -170
  0
VERTEX
  5
3EF
330
FC
100
AcDbEntity
  8
0
 62
   151
100
AcDbFaceRecord
 10
0.0
 20
0.0
 30
0.0
 70
   128
 71
   171
 72
   138
 73
   128
 74
  -171
  0
VERTEX
  5
3F0
330
FC
100
AcDbEntity
  8
0
 62
   151
100
AcDbFaceRecord
 10
0.0
 20
0.0
 30
0.0
 70
   128
 71
   171
 72
   170
 73
   138
 74
  -171
  0
VERTEX
  5
3F1
330
FC
100
AcDbEntity
  8
0
 62
   151
100
AcDbFaceRecord
 10
0.0
 20
0.0
 30
0.0
 70
   128
 71
   163
 72
   171
 73
   128
 74
  -163
  0
VERTEX
  5
3F2
330
FC
100
AcDbEntity
  8
0
 62
   151
100
AcDbFaceRecord
 10
0.0
 20
0.0
 30
0.0
 70
   128
 71
   172
 72
   134
 73
   131
 74
  -172
  0
VERTEX
  5
3F3
330
FC
100
AcDbEntity
  8
0
 62
   151
100
AcDbFaceRecord
 10
0.0
 20
0.0
 30
0.0
 70
   128
 71
   173
 72
   131
 73
   137
 74
  -173
  0
VERTEX
  5
3F4
330
FC
100
AcDbEntity
  8
0
 62
   151
100
AcDbFaceRecord
 10
0.0
 20
0.0
 30
0.0
 70
   128
 71
   172
 72
   131
 73
   173
 74
  -172
  0
VERTEX
  5
3F5
330
FC
100
AcDbEntity
  8
0
 62
   151
100
AcDbFaceRecord
 10
0.0
 20
0.0
 30
0.0
 70
   128
 71
   174
 72
   151
 73
   154
 74
  -174
  0
VERTEX
  5
3F6
330
FC
100
AcDbEntity
  8
0
 62
   151
100
AcDbFaceRecord
 10
0.0
 20
0.0
 30
0.0
 70
   128
 71
   175
 72
   147
 73
   151
 74
  -175
  0
VERTEX
  5
3F7
330
FC
100
AcDbEntity
  8
0
 62
   151
100
AcDbFaceRecord
 10
0.0
 20
0.0
 30
0.0
 70
   128
 71
   174
 72
   175
 73
   151
 74
  -174
  0
VERTEX
  5
3F8
330
FC
100
AcDbEntity
  8
0
 62
   151
100
AcDbFaceRecord
 10
0.0
 20
0.0
 30
0.0
 70
   128
 71
   176
 72
   154
 73
   157
 74
  -176
  0
VERTEX
  5
3F9
330
FC
100
AcDbEntity
  8
0
 62
   151
100
AcDbFaceRecord
 10
0.0
 20
0.0
 30
0.0
 70
   128
 71
   176
 72
   174
 73
   154
 74
  -176
  0
VERTEX
  5
3FA
330
FC
100
AcDbEntity
  8
0
 62
   151
100
AcDbFaceRecord
 10
0.0
 20
0.0
 30
0.0
 70
   128
 71
   177
 72
   157
 73
   158
 74
  -177
  0
VERTEX
  5
3FB
330
FC
100
AcDbEntity
  8
0
 62
   151
100
AcDbFaceRecord
 10
0.0
 20
0.0
 30
0.0
 70
   128
 71
   177
 72
   176
 73
   157
 74
  -177
  0
VERTEX
  5
3FC
330
FC
100
AcDbEntity
  8
0
 62
   151
100
AcDbFaceRecord
 10
0.0
 20
0.0
 30
0.0
 70
   128
 71
   178
 72
   158
 73
   160
 74
  -178
  0
VERTEX
  5
3FD
330
FC
100
AcDbEntity
  8
0
 62
   151
100
AcDbFaceRecord
 10
0.0
 20
0.0
 30
0.0
 70
   128
 71
   179
 72
   177
 73
   158
 74
  -179
  0
VERTEX
  5
3FE
330
FC
100
AcDbEntity
  8
0
 62
   151
100
AcDbFaceRecord
 10
0.0
 20
0.0
 30
0.0
 70
   128
 71
   178
 72
   179
 73
   158
 74
  -178
  0
VERTEX
  5
3FF
330
FC
100
AcDbEntity
  8
0
 62
   151
100
AcDbFaceRecord
 10
0.0
 20
0.0
 30
0.0
 70
   128
 71
   172
 72
   160
 73
   134
 74
  -172
  0
VERTEX
  5
400
330
FC
100
AcDbEntity
  8
0
 62
   151
100
AcDbFaceRecord
 10
0.0
 20
0.0
 30
0.0
 70
   128
 71
   172
 72
   178
 73
   160
 74
  -172
  0
VERTEX
  5
401
330
FC
100
AcDbEntity
  8
0
 62
   151
100
AcDbFaceRecord
 10
0.0
 20
0.0
 30
0.0
 70
   128
 71
   180
 72
   181
 73
   182
 74
  -180
  0
VERTEX
  5
402
330
FC
100
AcDbEntity
  8
0
 62
   151
100
AcDbFaceRecord
 10
0.0
 20
0.0
 30
0.0
 70
   128
 71
   124
 72
   182
 73
   181
 74
  -124
  0
VERTEX
  5
403
330
FC
100
AcDbEntity
  8
0
 62
   151
100
AcDbFaceRecord
 10
0.0
 20
0.0
 30
0.0
 70
   128
 71
   183
 72
   182
 73
   184
 74
  -183
  0
VERTEX
  5
404
330
FC
100
AcDbEntity
  8
0
 62
   151
100
AcDbFaceRecord
 10
0.0
 20
0.0
 30
0.0
 70
   128
 71
   123
 72
   184
 73
   182
 74
  -123
  0
VERTEX
  5
405
330
FC
100
AcDbEntity
  8
0
 62
   151
100
AcDbFaceRecord
 10
0.0
 20
0.0
 30
0.0
 70
   128
 71
   180
 72
   182
 73
   183
 74
  -180
  0
VERTEX
  5
406
330
FC
100
AcDbEntity
  8
0
 62
   151
100
AcDbFaceRecord
 10
0.0
 20
0.0
 30
0.0
 70
   128
 71
   124
 72
   123
 73
   182
 74
  -124
  0
VERTEX
  5
407
330
FC
100
AcDbEntity
  8
0
 62
   151
100
AcDbFaceRecord
 10
0.0
 20
0.0
 30
0.0
 70
   128
 71
   185
 72
   186
 73
   181
 74
  -185
  0
VERTEX
  5
408
330
FC
100
AcDbEntity
  8
0
 62
   151
100
AcDbFaceRecord
 10
0.0
 20
0.0
 30
0.0
 70
   128
 71
   114
 72
   181
 73
   186
 74
  -114
  0
VERTEX
  5
409
330
FC
100
AcDbEntity
  8
0
 62
   151
100
AcDbFaceRecord
 10
0.0
 20
0.0
 30
0.0
 70
   128
 71
   180
 72
   185
 73
   181
 74
  -180
  0
VERTEX
  5
40A
330
FC
100
AcDbEntity
  8
0
 62
   151
100
AcDbFaceRecord
 10
0.0
 20
0.0
 30
0.0
 70
   128
 71
   114
 72
   124
 73
   181
 74
  -114
  0
VERTEX
  5
40B
330
FC
100
AcDbEntity
  8
0
 62
   151
100
AcDbFaceRecord
 10
0.0
 20
0.0
 30
0.0
 70
   128
 71
   187
 72
   188
 73
   186
 74
  -187
  0
VERTEX
  5
40C
330
FC
100
AcDbEntity
  8
0
 62
   151
100
AcDbFaceRecord
 10
0.0
 20
0.0
 30
0.0
 70
   128
 71
   122
 72
   186
 73
   188
 74
  -122
  0
VERTEX
  5
40D
330
FC
100
AcDbEntity
  8
0
 62
   151
100
AcDbFaceRecord
 10
0.0
 20
0.0
 30
0.0
 70
   128
 71
   189
 72
   187
 73
   186
 74
  -189
  0
VERTEX
  5
40E
330
FC
100
AcDbEntity
  8
0
 62
   151
100
AcDbFaceRecord
 10
0.0
 20
0.0
 30
0.0
 70
   128
 71
   185
 72
   189
 73
   186
 74
  -185
  0
VERTEX
  5
40F
330
FC
100
AcDbEntity
  8
0
 62
   151
100
AcDbFaceRecord
 10
0.0
 20
0.0
 30
0.0
 70
   128
 71
   122
 72
   114
 73
   186
 74
  -122
  0
VERTEX
  5
410
330
FC
100
AcDbEntity
  8
0
 62
   151
100
AcDbFaceRecord
 10
0.0
 20
0.0
 30
0.0
 70
   128
 71
   121
 72
   188
 73
   187
 74
  -121
  0
VERTEX
  5
411
330
FC
100
AcDbEntity
  8
0
 62
   151
100
AcDbFaceRecord
 10
0.0
 20
0.0
 30
0.0
 70
   128
 71
   121
 72
   122
 73
   188
 74
  -121
  0
VERTEX
  5
412
330
FC
100
AcDbEntity
  8
0
 62
   151
100
AcDbFaceRecord
 10
0.0
 20
0.0
 30
0.0
 70
   128
 71
   190
 72
   191
 73
   187
 74
  -190
  0
VERTEX
  5
413
330
FC
100
AcDbEntity
  8
0
 62
   151
100
AcDbFaceRecord
 10
0.0
 20
0.0
 30
0.0
 70
   128
 71
   120
 72
   187
 73
   191
 74
  -120
  0
VERTEX
  5
414
330
FC
100
AcDbEntity
  8
0
 62
   151
100
AcDbFaceRecord
 10
0.0
 20
0.0
 30
0.0
 70
   128
 71
   189
 72
   190
 73
   187
 74
  -189
  0
VERTEX
  5
415
330
FC
100
AcDbEntity
  8
0
 62
   151
100
AcDbFaceRecord
 10
0.0
 20
0.0
 30
0.0
 70
   128
 71
   120
 72
   121
 73
   187
 74
  -120
  0
VERTEX
  5
416
330
FC
100
AcDbEntity
  8
0
 62
   151
100
AcDbFaceRecord
 10
0.0
 20
0.0
 30
0.0
 70
   128
 71
   192
 72
   193
 73
   191
 74
  -192
  0
VERTEX
  5
417
330
FC
100
AcDbEntity
  8
0
 62
   151
100
AcDbFaceRecord
 10
0.0
 20
0.0
 30
0.0
 70
   128
 71
   118
 72
   191
 73
   193
 74
  -118
  0
VERTEX
  5
418
330
FC
100
AcDbEntity
  8
0
 62
   151
100
AcDbFaceRecord
 10
0.0
 20
0.0
 30
0.0
 70
   128
 71
   194
 72
   192
 73
   191
 74
  -194
  0
VERTEX
  5
419
330
FC
100
AcDbEntity
  8
0
 62
   151
100
AcDbFaceRecord
 10
0.0
 20
0.0
 30
0.0
 70
   128
 71
   190
 72
   194
 73
   191
 74
  -190
  0
VERTEX
  5
41A
330
FC
100
AcDbEntity
  8
0
 62
   151
100
AcDbFaceRecord
 10
0.0
 20
0.0
 30
0.0
 70
   128
 71
   118
 72
   120
 73
   191
 74
  -118
  0
VERTEX
  5
41B
330
FC
100
AcDbEntity
  8
0
 62
   151
100
AcDbFaceRecord
 10
0.0
 20
0.0
 30
0.0
 70
   128
 71
   195
 72
   196
 73
   193
 74
  -195
  0
VERTEX
  5
41C
330
FC
100
AcDbEntity
  8
0
 62
   151
100
AcDbFaceRecord
 10
0.0
 20
0.0
 30
0.0
 70
   128
 71
   119
 72
   193
 73
   196
 74
  -119
  0
VERTEX
  5
41D
330
FC
100
AcDbEntity
  8
0
 62
   151
100
AcDbFaceRecord
 10
0.0
 20
0.0
 30
0.0
 70
   128
 71
   192
 72
   195
 73
   193
 74
  -192
  0
VERTEX
  5
41E
330
FC
100
AcDbEntity
  8
0
 62
   151
100
AcDbFaceRecord
 10
0.0
 20
0.0
 30
0.0
 70
   128
 71
   118
 72
   193
 73
   119
 74
  -118
  0
VERTEX
  5
41F
330
FC
100
AcDbEntity
  8
0
 62
   151
100
AcDbFaceRecord
 10
0.0
 20
0.0
 30
0.0
 70
   128
 71
   197
 72
   198
 73
   196
 74
  -197
  0
VERTEX
  5
420
330
FC
100
AcDbEntity
  8
0
 62
   151
100
AcDbFaceRecord
 10
0.0
 20
0.0
 30
0.0
 70
   128
 71
   117
 72
   196
 73
   198
 74
  -117
  0
VERTEX
  5
421
330
FC
100
AcDbEntity
  8
0
 62
   151
100
AcDbFaceRecord
 10
0.0
 20
0.0
 30
0.0
 70
   128
 71
   195
 72
   197
 73
   196
 74
  -195
  0
VERTEX
  5
422
330
FC
100
AcDbEntity
  8
0
 62
   151
100
AcDbFaceRecord
 10
0.0
 20
0.0
 30
0.0
 70
   128
 71
   117
 72
   119
 73
   196
 74
  -117
  0
VERTEX
  5
423
330
FC
100
AcDbEntity
  8
0
 62
   151
100
AcDbFaceRecord
 10
0.0
 20
0.0
 30
0.0
 70
   128
 71
   199
 72
   200
 73
   198
 74
  -199
  0
VERTEX
  5
424
330
FC
100
AcDbEntity
  8
0
 62
   151
100
AcDbFaceRecord
 10
0.0
 20
0.0
 30
0.0
 70
   128
 71
   127
 72
   198
 73
   200
 74
  -127
  0
VERTEX
  5
425
330
FC
100
AcDbEntity
  8
0
 62
   151
100
AcDbFaceRecord
 10
0.0
 20
0.0
 30
0.0
 70
   128
 71
   201
 72
   199
 73
   198
 74
  -201
  0
VERTEX
  5
426
330
FC
100
AcDbEntity
  8
0
 62
   151
100
AcDbFaceRecord
 10
0.0
 20
0.0
 30
0.0
 70
   128
 71
   197
 72
   201
 73
   198
 74
  -197
  0
VERTEX
  5
427
330
FC
100
AcDbEntity
  8
0
 62
   151
100
AcDbFaceRecord
 10
0.0
 20
0.0
 30
0.0
 70
   128
 71
   127
 72
   117
 73
   198
 74
  -127
  0
VERTEX
  5
428
330
FC
100
AcDbEntity
  8
0
 62
   151
100
AcDbFaceRecord
 10
0.0
 20
0.0
 30
0.0
 70
   128
 71
   126
 72
   200
 73
   199
 74
  -126
  0
VERTEX
  5
429
330
FC
100
AcDbEntity
  8
0
 62
   151
100
AcDbFaceRecord
 10
0.0
 20
0.0
 30
0.0
 70
   128
 71
   126
 72
   127
 73
   200
 74
  -126
  0
VERTEX
  5
42A
330
FC
100
AcDbEntity
  8
0
 62
   151
100
AcDbFaceRecord
 10
0.0
 20
0.0
 30
0.0
 70
   128
 71
   202
 72
   184
 73
   199
 74
  -202
  0
VERTEX
  5
42B
330
FC
100
AcDbEntity
  8
0
 62
   151
100
AcDbFaceRecord
 10
0.0
 20
0.0
 30
0.0
 70
   128
 71
   125
 72
   199
 73
   184
 74
  -125
  0
VERTEX
  5
42C
330
FC
100
AcDbEntity
  8
0
 62
   151
100
AcDbFaceRecord
 10
0.0
 20
0.0
 30
0.0
 70
   128
 71
   201
 72
   202
 73
   199
 74
  -201
  0
VERTEX
  5
42D
330
FC
100
AcDbEntity
  8
0
 62
   151
100
AcDbFaceRecord
 10
0.0
 20
0.0
 30
0.0
 70
   128
 71
   125
 72
   126
 73
   199
 74
  -125
  0
VERTEX
  5
42E
330
FC
100
AcDbEntity
  8
0
 62
   151
100
AcDbFaceRecord
 10
0.0
 20
0.0
 30
0.0
 70
   128
 71
   203
 72
   183
 73
   184
 74
  -203
  0
VERTEX
  5
42F
330
FC
100
AcDbEntity
  8
0
 62
   151
100
AcDbFaceRecord
 10
0.0
 20
0.0
 30
0.0
 70
   128
 71
   202
 72
   203
 73
   184
 74
  -202
  0
VERTEX
  5
430
330
FC
100
AcDbEntity
  8
0
 62
   151
100
AcDbFaceRecord
 10
0.0
 20
0.0
 30
0.0
 70
   128
 71
   123
 72
   125
 73
   184
 74
  -123
  0
VERTEX
  5
431
330
FC
100
AcDbEntity
  8
0
 62
   151
100
AcDbFaceRecord
 10
0.0
 20
0.0
 30
0.0
 70
   128
 71
   173
 72
   183
 73
   203
 74
  -173
  0
VERTEX
  5
432
330
FC
100
AcDbEntity
  8
0
 62
   151
100
AcDbFaceRecord
 10
0.0
 20
0.0
 30
0.0
 70
   128
 71
   204
 72
   180
 73
   183
 74
  -204
  0
VERTEX
  5
433
330
FC
100
AcDbEntity
  8
0
 62
   151
100
AcDbFaceRecord
 10
0.0
 20
0.0
 30
0.0
 70
   128
 71
   204
 72
   183
 73
   173
 74
  -204
  0
VERTEX
  5
434
330
FC
100
AcDbEntity
  8
0
 62
   151
100
AcDbFaceRecord
 10
0.0
 20
0.0
 30
0.0
 70
   128
 71
   172
 72
   203
 73
   202
 74
  -172
  0
VERTEX
  5
435
330
FC
100
AcDbEntity
  8
0
 62
   151
100
AcDbFaceRecord
 10
0.0
 20
0.0
 30
0.0
 70
   128
 71
   172
 72
   173
 73
   203
 74
  -172
  0
VERTEX
  5
436
330
FC
100
AcDbEntity
  8
0
 62
   151
100
AcDbFaceRecord
 10
0.0
 20
0.0
 30
0.0
 70
   128
 71
   178
 72
   202
 73
   201
 74
  -178
  0
VERTEX
  5
437
330
FC
100
AcDbEntity
  8
0
 62
   151
100
AcDbFaceRecord
 10
0.0
 20
0.0
 30
0.0
 70
   128
 71
   172
 72
   202
 73
   178
 74
  -172
  0
VERTEX
  5
438
330
FC
100
AcDbEntity
  8
0
 62
   151
100
AcDbFaceRecord
 10
0.0
 20
0.0
 30
0.0
 70
   128
 71
   179
 72
   201
 73
   197
 74
  -179
  0
VERTEX
  5
439
330
FC
100
AcDbEntity
  8
0
 62
   151
100
AcDbFaceRecord
 10
0.0
 20
0.0
 30
0.0
 70
   128
 71
   178
 72
   201
 73
   179
 74
  -178
  0
VERTEX
  5
43A
330
FC
100
AcDbEntity
  8
0
 62
   151
100
AcDbFaceRecord
 10
0.0
 20
0.0
 30
0.0
 70
   128
 71
   177
 72
   197
 73
   195
 74
  -177
  0
VERTEX
  5
43B
330
FC
100
AcDbEntity
  8
0
 62
   151
100
AcDbFaceRecord
 10
0.0
 20
0.0
 30
0.0
 70
   128
 71
   179
 72
   197
 73
   177
 74
  -179
  0
VERTEX
  5
43C
330
FC
100
AcDbEntity
  8
0
 62
   151
100
AcDbFaceRecord
 10
0.0
 20
0.0
 30
0.0
 70
   128
 71
   176
 72
   195
 73
   192
 74
  -176
  0
VERTEX
  5
43D
330
FC
100
AcDbEntity
  8
0
 62
   151
100
AcDbFaceRecord
 10
0.0
 20
0.0
 30
0.0
 70
   128
 71
   177
 72
   195
 73
   176
 74
  -177
  0
VERTEX
  5
43E
330
FC
100
AcDbEntity
  8
0
 62
   151
100
AcDbFaceRecord
 10
0.0
 20
0.0
 30
0.0
 70
   128
 71
   174
 72
   192
 73
   194
 74
  -174
  0
VERTEX
  5
43F
330
FC
100
AcDbEntity
  8
0
 62
   151
100
AcDbFaceRecord
 10
0.0
 20
0.0
 30
0.0
 70
   128
 71
   176
 72
   192
 73
   174
 74
  -176
  0
VERTEX
  5
440
330
FC
100
AcDbEntity
  8
0
 62
   151
100
AcDbFaceRecord
 10
0.0
 20
0.0
 30
0.0
 70
   128
 71
   175
 72
   194
 73
   190
 74
  -175
  0
VERTEX
  5
441
330
FC
100
AcDbEntity
  8
0
 62
   151
100
AcDbFaceRecord
 10
0.0
 20
0.0
 30
0.0
 70
   128
 71
   174
 72
   194
 73
   175
 74
  -174
  0
VERTEX
  5
442
330
FC
100
AcDbEntity
  8
0
 62
   151
100
AcDbFaceRecord
 10
0.0
 20
0.0
 30
0.0
 70
   128
 71
   205
 72
   190
 73
   189
 74
  -205
  0
VERTEX
  5
443
330
FC
100
AcDbEntity
  8
0
 62
   151
100
AcDbFaceRecord
 10
0.0
 20
0.0
 30
0.0
 70
   128
 71
   175
 72
   190
 73
   205
 74
  -175
  0
VERTEX
  5
444
330
FC
100
AcDbEntity
  8
0
 62
   151
100
AcDbFaceRecord
 10
0.0
 20
0.0
 30
0.0
 70
   128
 71
   206
 72
   189
 73
   185
 74
  -206
  0
VERTEX
  5
445
330
FC
100
AcDbEntity
  8
0
 62
   151
100
AcDbFaceRecord
 10
0.0
 20
0.0
 30
0.0
 70
   128
 71
   205
 72
   189
 73
   206
 74
  -205
  0
VERTEX
  5
446
330
FC
100
AcDbEntity
  8
0
 62
   151
100
AcDbFaceRecord
 10
0.0
 20
0.0
 30
0.0
 70
   128
 71
   207
 72
   185
 73
   180
 74
  -207
  0
VERTEX
  5
447
330
FC
100
AcDbEntity
  8
0
 62
   151
100
AcDbFaceRecord
 10
0.0
 20
0.0
 30
0.0
 70
   128
 71
   206
 72
   185
 73
   207
 74
  -206
  0
VERTEX
  5
448
330
FC
100
AcDbEntity
  8
0
 62
   151
100
AcDbFaceRecord
 10
0.0
 20
0.0
 30
0.0
 70
   128
 71
   207
 72
   180
 73
   204
 74
  -207
  0
VERTEX
  5
449
330
FC
100
AcDbEntity
  8
0
 62
   151
100
AcDbFaceRecord
 10
0.0
 20
0.0
 30
0.0
 70
   128
 71
   116
 72
   119
 73
   117
 74
  -116
  0
VERTEX
  5
44A
330
FC
100
AcDbEntity
  8
0
 62
   151
100
AcDbFaceRecord
 10
0.0
 20
0.0
 30
0.0
 70
   128
 71
   114
 72
   115
 73
   124
 74
  -114
  0
VERTEX
  5
44B
330
FC
100
AcDbEntity
  8
0
 62
   151
100
AcDbFaceRecord
 10
0.0
 20
0.0
 30
0.0
 70
   128
 71
   204
 72
   137
 73
   140
 74
  -204
  0
VERTEX
  5
44C
330
FC
100
AcDbEntity
  8
0
 62
   151
100
AcDbFaceRecord
 10
0.0
 20
0.0
 30
0.0
 70
   128
 71
   204
 72
   173
 73
   137
 74
  -204
  0
VERTEX
  5
44D
330
FC
100
AcDbEntity
  8
0
 62
   151
100
AcDbFaceRecord
 10
0.0
 20
0.0
 30
0.0
 70
   128
 71
   207
 72
   140
 73
   141
 74
  -207
  0
VERTEX
  5
44E
330
FC
100
AcDbEntity
  8
0
 62
   151
100
AcDbFaceRecord
 10
0.0
 20
0.0
 30
0.0
 70
   128
 71
   207
 72
   204
 73
   140
 74
  -207
  0
VERTEX
  5
44F
330
FC
100
AcDbEntity
  8
0
 62
   151
100
AcDbFaceRecord
 10
0.0
 20
0.0
 30
0.0
 70
   128
 71
   205
 72
   141
 73
   144
 74
  -205
  0
VERTEX
  5
450
330
FC
100
AcDbEntity
  8
0
 62
   151
100
AcDbFaceRecord
 10
0.0
 20
0.0
 30
0.0
 70
   128
 71
   206
 72
   207
 73
   141
 74
  -206
  0
VERTEX
  5
451
330
FC
100
AcDbEntity
  8
0
 62
   151
100
AcDbFaceRecord
 10
0.0
 20
0.0
 30
0.0
 70
   128
 71
   205
 72
   206
 73
   141
 74
  -205
  0
VERTEX
  5
452
330
FC
100
AcDbEntity
  8
0
 62
   151
100
AcDbFaceRecord
 10
0.0
 20
0.0
 30
0.0
 70
   128
 71
   175
 72
   144
 73
   147
 74
  -175
  0
VERTEX
  5
453
330
FC
100
AcDbEntity
  8
0
 62
   151
100
AcDbFaceRecord
 10
0.0
 20
0.0
 30
0.0
 70
   128
 71
   175
 72
   205
 73
   144
 74
  -175
  0
VERTEX
  5
454
330
FC
100
AcDbEntity
  8
0
 62
   151
100
AcDbFaceRecord
 10
0.0
 20
0.0
 30
0.0
 70
   128
 71
   208
 72
   162
 73
   164
 74
  -208
  0
VERTEX
  5
455
330
FC
100
AcDbEntity
  8
0
 62
   151
100
AcDbFaceRecord
 10
0.0
 20
0.0
 30
0.0
 70
   128
 71
   209
 72
   163
 73
   162
 74
  -209
  0
VERTEX
  5
456
330
FC
100
AcDbEntity
  8
0
 62
   151
100
AcDbFaceRecord
 10
0.0
 20
0.0
 30
0.0
 70
   128
 71
   209
 72
   162
 73
   208
 74
  -209
  0
VERTEX
  5
457
330
FC
100
AcDbEntity
  8
0
 62
   151
100
AcDbFaceRecord
 10
0.0
 20
0.0
 30
0.0
 70
   128
 71
   208
 72
   164
 73
   165
 74
  -208
  0
VERTEX
  5
458
330
FC
100
AcDbEntity
  8
0
 62
   151
100
AcDbFaceRecord
 10
0.0
 20
0.0
 30
0.0
 70
   128
 71
   210
 72
   165
 73
   166
 74
  -210
  0
VERTEX
  5
459
330
FC
100
AcDbEntity
  8
0
 62
   151
100
AcDbFaceRecord
 10
0.0
 20
0.0
 30
0.0
 70
   128
 71
   211
 72
   165
 73
   210
 74
  -211
  0
VERTEX
  5
45A
330
FC
100
AcDbEntity
  8
0
 62
   151
100
AcDbFaceRecord
 10
0.0
 20
0.0
 30
0.0
 70
   128
 71
   208
 72
   165
 73
   211
 74
  -208
  0
VERTEX
  5
45B
330
FC
100
AcDbEntity
  8
0
 62
   151
100
AcDbFaceRecord
 10
0.0
 20
0.0
 30
0.0
 70
   128
 71
   210
 72
   166
 73
   167
 74
  -210
  0
VERTEX
  5
45C
330
FC
100
AcDbEntity
  8
0
 62
   151
100
AcDbFaceRecord
 10
0.0
 20
0.0
 30
0.0
 70
   128
 71
   210
 72
   167
 73
   168
 74
  -210
  0
VERTEX
  5
45D
330
FC
100
AcDbEntity
  8
0
 62
   151
100
AcDbFaceRecord
 10
0.0
 20
0.0
 30
0.0
 70
   128
 71
   212
 72
   168
 73
   169
 74
  -212
  0
VERTEX
  5
45E
330
FC
100
AcDbEntity
  8
0
 62
   151
100
AcDbFaceRecord
 10
0.0
 20
0.0
 30
0.0
 70
   128
 71
   210
 72
   168
 73
   212
 74
  -210
  0
VERTEX
  5
45F
330
FC
100
AcDbEntity
  8
0
 62
   151
100
AcDbFaceRecord
 10
0.0
 20
0.0
 30
0.0
 70
   128
 71
   213
 72
   214
 73
   215
 74
  -213
  0
VERTEX
  5
460
330
FC
100
AcDbEntity
  8
0
 62
   151
100
AcDbFaceRecord
 10
0.0
 20
0.0
 30
0.0
 70
   128
 71
   216
 72
   215
 73
   214
 74
  -216
  0
VERTEX
  5
461
330
FC
100
AcDbEntity
  8
0
 62
   151
100
AcDbFaceRecord
 10
0.0
 20
0.0
 30
0.0
 70
   128
 71
   217
 72
   213
 73
   215
 74
  -217
  0
VERTEX
  5
462
330
FC
100
AcDbEntity
  8
0
 62
   151
100
AcDbFaceRecord
 10
0.0
 20
0.0
 30
0.0
 70
   128
 71
   218
 72
   215
 73
   216
 74
  -218
  0
VERTEX
  5
463
330
FC
100
AcDbEntity
  8
0
 62
   151
100
AcDbFaceRecord
 10
0.0
 20
0.0
 30
0.0
 70
   128
 71
   219
 72
   215
 73
   218
 74
  -219
  0
VERTEX
  5
464
330
FC
100
AcDbEntity
  8
0
 62
   151
100
AcDbFaceRecord
 10
0.0
 20
0.0
 30
0.0
 70
   128
 71
   217
 72
   215
 73
   219
 74
  -217
  0
VERTEX
  5
465
330
FC
100
AcDbEntity
  8
0
 62
   151
100
AcDbFaceRecord
 10
0.0
 20
0.0
 30
0.0
 70
   128
 71
   213
 72
   220
 73
   214
 74
  -213
  0
VERTEX
  5
466
330
FC
100
AcDbEntity
  8
0
 62
   151
100
AcDbFaceRecord
 10
0.0
 20
0.0
 30
0.0
 70
   128
 71
   221
 72
   214
 73
   220
 74
  -221
  0
VERTEX
  5
467
330
FC
100
AcDbEntity
  8
0
 62
   151
100
AcDbFaceRecord
 10
0.0
 20
0.0
 30
0.0
 70
   128
 71
   222
 72
   216
 73
   214
 74
  -222
  0
VERTEX
  5
468
330
FC
100
AcDbEntity
  8
0
 62
   151
100
AcDbFaceRecord
 10
0.0
 20
0.0
 30
0.0
 70
   128
 71
   223
 72
   222
 73
   214
 74
  -223
  0
VERTEX
  5
469
330
FC
100
AcDbEntity
  8
0
 62
   151
100
AcDbFaceRecord
 10
0.0
 20
0.0
 30
0.0
 70
   128
 71
   221
 72
   223
 73
   214
 74
  -221
  0
VERTEX
  5
46A
330
FC
100
AcDbEntity
  8
0
 62
   151
100
AcDbFaceRecord
 10
0.0
 20
0.0
 30
0.0
 70
   128
 71
   224
 72
   225
 73
   220
 74
  -224
  0
VERTEX
  5
46B
330
FC
100
AcDbEntity
  8
0
 62
   151
100
AcDbFaceRecord
 10
0.0
 20
0.0
 30
0.0
 70
   128
 71
   226
 72
   220
 73
   225
 74
  -226
  0
VERTEX
  5
46C
330
FC
100
AcDbEntity
  8
0
 62
   151
100
AcDbFaceRecord
 10
0.0
 20
0.0
 30
0.0
 70
   128
 71
   213
 72
   224
 73
   220
 74
  -213
  0
VERTEX
  5
46D
330
FC
100
AcDbEntity
  8
0
 62
   151
100
AcDbFaceRecord
 10
0.0
 20
0.0
 30
0.0
 70
   128
 71
   226
 72
   221
 73
   220
 74
  -226
  0
VERTEX
  5
46E
330
FC
100
AcDbEntity
  8
0
 62
   151
100
AcDbFaceRecord
 10
0.0
 20
0.0
 30
0.0
 70
   128
 71
   227
 72
   228
 73
   225
 74
  -227
  0
VERTEX
  5
46F
330
FC
100
AcDbEntity
  8
0
 62
   151
100
AcDbFaceRecord
 10
0.0
 20
0.0
 30
0.0
 70
   128
 71
   229
 72
   225
 73
   228
 74
  -229
  0
VERTEX
  5
470
330
FC
100
AcDbEntity
  8
0
 62
   151
100
AcDbFaceRecord
 10
0.0
 20
0.0
 30
0.0
 70
   128
 71
   224
 72
   227
 73
   225
 74
  -224
  0
VERTEX
  5
471
330
FC
100
AcDbEntity
  8
0
 62
   151
100
AcDbFaceRecord
 10
0.0
 20
0.0
 30
0.0
 70
   128
 71
   229
 72
   226
 73
   225
 74
  -229
  0
VERTEX
  5
472
330
FC
100
AcDbEntity
  8
0
 62
   151
100
AcDbFaceRecord
 10
0.0
 20
0.0
 30
0.0
 70
   128
 71
   230
 72
   231
 73
   228
 74
  -230
  0
VERTEX
  5
473
330
FC
100
AcDbEntity
  8
0
 62
   151
100
AcDbFaceRecord
 10
0.0
 20
0.0
 30
0.0
 70
   128
 71
   232
 72
   228
 73
   231
 74
  -232
  0
VERTEX
  5
474
330
FC
100
AcDbEntity
  8
0
 62
   151
100
AcDbFaceRecord
 10
0.0
 20
0.0
 30
0.0
 70
   128
 71
   227
 72
   230
 73
   228
 74
  -227
  0
VERTEX
  5
475
330
FC
100
AcDbEntity
  8
0
 62
   151
100
AcDbFaceRecord
 10
0.0
 20
0.0
 30
0.0
 70
   128
 71
   232
 72
   229
 73
   228
 74
  -232
  0
VERTEX
  5
476
330
FC
100
AcDbEntity
  8
0
 62
   151
100
AcDbFaceRecord
 10
0.0
 20
0.0
 30
0.0
 70
   128
 71
   233
 72
   234
 73
   231
 74
  -233
  0
VERTEX
  5
477
330
FC
100
AcDbEntity
  8
0
 62
   151
100
AcDbFaceRecord
 10
0.0
 20
0.0
 30
0.0
 70
   128
 71
   235
 72
   231
 73
   234
 74
  -235
  0
VERTEX
  5
478
330
FC
100
AcDbEntity
  8
0
 62
   151
100
AcDbFaceRecord
 10
0.0
 20
0.0
 30
0.0
 70
   128
 71
   230
 72
   233
 73
   231
 74
  -230
  0
VERTEX
  5
479
330
FC
100
AcDbEntity
  8
0
 62
   151
100
AcDbFaceRecord
 10
0.0
 20
0.0
 30
0.0
 70
   128
 71
   236
 72
   232
 73
   231
 74
  -236
  0
VERTEX
  5
47A
330
FC
100
AcDbEntity
  8
0
 62
   151
100
AcDbFaceRecord
 10
0.0
 20
0.0
 30
0.0
 70
   128
 71
   235
 72
   236
 73
   231
 74
  -235
  0
VERTEX
  5
47B
330
FC
100
AcDbEntity
  8
0
 62
   151
100
AcDbFaceRecord
 10
0.0
 20
0.0
 30
0.0
 70
   128
 71
   237
 72
   234
 73
   233
 74
  -237
  0
VERTEX
  5
47C
330
FC
100
AcDbEntity
  8
0
 62
   151
100
AcDbFaceRecord
 10
0.0
 20
0.0
 30
0.0
 70
   128
 71
   237
 72
   238
 73
   234
 74
  -237
  0
VERTEX
  5
47D
330
FC
100
AcDbEntity
  8
0
 62
   151
100
AcDbFaceRecord
 10
0.0
 20
0.0
 30
0.0
 70
   128
 71
   239
 72
   234
 73
   238
 74
  -239
  0
VERTEX
  5
47E
330
FC
100
AcDbEntity
  8
0
 62
   151
100
AcDbFaceRecord
 10
0.0
 20
0.0
 30
0.0
 70
   128
 71
   239
 72
   240
 73
   234
 74
  -239
  0
VERTEX
  5
47F
330
FC
100
AcDbEntity
  8
0
 62
   151
100
AcDbFaceRecord
 10
0.0
 20
0.0
 30
0.0
 70
   128
 71
   235
 72
   234
 73
   240
 74
  -235
  0
VERTEX
  5
480
330
FC
100
AcDbEntity
  8
0
 62
   151
100
AcDbFaceRecord
 10
0.0
 20
0.0
 30
0.0
 70
   128
 71
   241
 72
   233
 73
   230
 74
  -241
  0
VERTEX
  5
481
330
FC
100
AcDbEntity
  8
0
 62
   151
100
AcDbFaceRecord
 10
0.0
 20
0.0
 30
0.0
 70
   128
 71
   242
 72
   237
 73
   233
 74
  -242
  0
VERTEX
  5
482
330
FC
100
AcDbEntity
  8
0
 62
   151
100
AcDbFaceRecord
 10
0.0
 20
0.0
 30
0.0
 70
   128
 71
   242
 72
   233
 73
   241
 74
  -242
  0
VERTEX
  5
483
330
FC
100
AcDbEntity
  8
0
 62
   151
100
AcDbFaceRecord
 10
0.0
 20
0.0
 30
0.0
 70
   128
 71
   243
 72
   230
 73
   227
 74
  -243
  0
VERTEX
  5
484
330
FC
100
AcDbEntity
  8
0
 62
   151
100
AcDbFaceRecord
 10
0.0
 20
0.0
 30
0.0
 70
   128
 71
   243
 72
   241
 73
   230
 74
  -243
  0
VERTEX
  5
485
330
FC
100
AcDbEntity
  8
0
 62
   151
100
AcDbFaceRecord
 10
0.0
 20
0.0
 30
0.0
 70
   128
 71
   244
 72
   227
 73
   224
 74
  -244
  0
VERTEX
  5
486
330
FC
100
AcDbEntity
  8
0
 62
   151
100
AcDbFaceRecord
 10
0.0
 20
0.0
 30
0.0
 70
   128
 71
   245
 72
   243
 73
   227
 74
  -245
  0
VERTEX
  5
487
330
FC
100
AcDbEntity
  8
0
 62
   151
100
AcDbFaceRecord
 10
0.0
 20
0.0
 30
0.0
 70
   128
 71
   244
 72
   245
 73
   227
 74
  -244
  0
VERTEX
  5
488
330
FC
100
AcDbEntity
  8
0
 62
   151
100
AcDbFaceRecord
 10
0.0
 20
0.0
 30
0.0
 70
   128
 71
   217
 72
   224
 73
   213
 74
  -217
  0
VERTEX
  5
489
330
FC
100
AcDbEntity
  8
0
 62
   151
100
AcDbFaceRecord
 10
0.0
 20
0.0
 30
0.0
 70
   128
 71
   217
 72
   244
 73
   224
 74
  -217
  0
VERTEX
  5
48A
330
FC
100
AcDbEntity
  8
0
 62
   151
100
AcDbFaceRecord
 10
0.0
 20
0.0
 30
0.0
 70
   128
 71
   212
 72
   169
 73
   170
 74
  -212
  0
VERTEX
  5
48B
330
FC
100
AcDbEntity
  8
0
 62
   151
100
AcDbFaceRecord
 10
0.0
 20
0.0
 30
0.0
 70
   128
 71
   209
 72
   170
 73
   171
 74
  -209
  0
VERTEX
  5
48C
330
FC
100
AcDbEntity
  8
0
 62
   151
100
AcDbFaceRecord
 10
0.0
 20
0.0
 30
0.0
 70
   128
 71
   246
 72
   212
 73
   170
 74
  -246
  0
VERTEX
  5
48D
330
FC
100
AcDbEntity
  8
0
 62
   151
100
AcDbFaceRecord
 10
0.0
 20
0.0
 30
0.0
 70
   128
 71
   209
 72
   246
 73
   170
 74
  -209
  0
VERTEX
  5
48E
330
FC
100
AcDbEntity
  8
0
 62
   151
100
AcDbFaceRecord
 10
0.0
 20
0.0
 30
0.0
 70
   128
 71
   209
 72
   171
 73
   163
 74
  -209
  0
VERTEX
  5
48F
330
FC
100
AcDbEntity
  8
0
 62
   151
100
AcDbFaceRecord
 10
0.0
 20
0.0
 30
0.0
 70
   128
 71
   247
 72
   248
 73
   238
 74
  -247
  0
VERTEX
  5
490
330
FC
100
AcDbEntity
  8
0
 62
   151
100
AcDbFaceRecord
 10
0.0
 20
0.0
 30
0.0
 70
   128
 71
   249
 72
   238
 73
   248
 74
  -249
  0
VERTEX
  5
491
330
FC
100
AcDbEntity
  8
0
 62
   151
100
AcDbFaceRecord
 10
0.0
 20
0.0
 30
0.0
 70
   128
 71
   237
 72
   247
 73
   238
 74
  -237
  0
VERTEX
  5
492
330
FC
100
AcDbEntity
  8
0
 62
   151
100
AcDbFaceRecord
 10
0.0
 20
0.0
 30
0.0
 70
   128
 71
   249
 72
   239
 73
   238
 74
  -249
  0
VERTEX
  5
493
330
FC
100
AcDbEntity
  8
0
 62
   151
100
AcDbFaceRecord
 10
0.0
 20
0.0
 30
0.0
 70
   128
 71
   250
 72
   251
 73
   248
 74
  -250
  0
VERTEX
  5
494
330
FC
100
AcDbEntity
  8
0
 62
   151
100
AcDbFaceRecord
 10
0.0
 20
0.0
 30
0.0
 70
   128
 71
   252
 72
   248
 73
   251
 74
  -252
  0
VERTEX
  5
495
330
FC
100
AcDbEntity
  8
0
 62
   151
100
AcDbFaceRecord
 10
0.0
 20
0.0
 30
0.0
 70
   128
 71
   247
 72
   250
 73
   248
 74
  -247
  0
VERTEX
  5
496
330
FC
100
AcDbEntity
  8
0
 62
   151
100
AcDbFaceRecord
 10
0.0
 20
0.0
 30
0.0
 70
   128
 71
   252
 72
   249
 73
   248
 74
  -252
  0
VERTEX
  5
497
330
FC
100
AcDbEntity
  8
0
 62
   151
100
AcDbFaceRecord
 10
0.0
 20
0.0
 30
0.0
 70
   128
 71
   218
 72
   216
 73
   251
 74
  -218
  0
VERTEX
  5
498
330
FC
100
AcDbEntity
  8
0
 62
   151
100
AcDbFaceRecord
 10
0.0
 20
0.0
 30
0.0
 70
   128
 71
   253
 72
   251
 73
   216
 74
  -253
  0
VERTEX
  5
499
330
FC
100
AcDbEntity
  8
0
 62
   151
100
AcDbFaceRecord
 10
0.0
 20
0.0
 30
0.0
 70
   128
 71
   250
 72
   218
 73
   251
 74
  -250
  0
VERTEX
  5
49A
330
FC
100
AcDbEntity
  8
0
 62
   151
100
AcDbFaceRecord
 10
0.0
 20
0.0
 30
0.0
 70
   128
 71
   253
 72
   252
 73
   251
 74
  -253
  0
VERTEX
  5
49B
330
FC
100
AcDbEntity
  8
0
 62
   151
100
AcDbFaceRecord
 10
0.0
 20
0.0
 30
0.0
 70
   128
 71
   254
 72
   253
 73
   216
 74
  -254
  0
VERTEX
  5
49C
330
FC
100
AcDbEntity
  8
0
 62
   151
100
AcDbFaceRecord
 10
0.0
 20
0.0
 30
0.0
 70
   128
 71
   222
 72
   254
 73
   216
 74
  -222
  0
VERTEX
  5
49D
330
FC
100
AcDbEntity
  8
0
 62
   151
100
AcDbFaceRecord
 10
0.0
 20
0.0
 30
0.0
 70
   128
 71
   255
 72
   218
 73
   250
 74
  -255
  0
VERTEX
  5
49E
330
FC
100
AcDbEntity
  8
0
 62
   151
100
AcDbFaceRecord
 10
0.0
 20
0.0
 30
0.0
 70
   128
 71
   219
 72
   218
 73
   255
 74
  -219
  0
VERTEX
  5
49F
330
FC
100
AcDbEntity
  8
0
 62
   151
100
AcDbFaceRecord
 10
0.0
 20
0.0
 30
0.0
 70
   128
 71
   256
 72
   250
 73
   247
 74
  -256
  0
VERTEX
  5
4A0
330
FC
100
AcDbEntity
  8
0
 62
   151
100
AcDbFaceRecord
 10
0.0
 20
0.0
 30
0.0
 70
   128
 71
   257
 72
   250
 73
   256
 74
  -257
  0
VERTEX
  5
4A1
330
FC
100
AcDbEntity
  8
0
 62
   151
100
AcDbFaceRecord
 10
0.0
 20
0.0
 30
0.0
 70
   128
 71
   255
 72
   250
 73
   257
 74
  -255
  0
VERTEX
  5
4A2
330
FC
100
AcDbEntity
  8
0
 62
   151
100
AcDbFaceRecord
 10
0.0
 20
0.0
 30
0.0
 70
   128
 71
   242
 72
   247
 73
   237
 74
  -242
  0
VERTEX
  5
4A3
330
FC
100
AcDbEntity
  8
0
 62
   151
100
AcDbFaceRecord
 10
0.0
 20
0.0
 30
0.0
 70
   128
 71
   256
 72
   247
 73
   242
 74
  -256
  0
VERTEX
  5
4A4
330
FC
100
AcDbEntity
  8
0
 62
   151
100
AcDbFaceRecord
 10
0.0
 20
0.0
 30
0.0
 70
   128
 71
   211
 72
   258
 73
   259
 74
  -211
  0
VERTEX
  5
4A5
330
FC
100
AcDbEntity
  8
0
 62
   151
100
AcDbFaceRecord
 10
0.0
 20
0.0
 30
0.0
 70
   128
 71
   260
 72
   259
 73
   258
 74
  -260
  0
VERTEX
  5
4A6
330
FC
100
AcDbEntity
  8
0
 62
   151
100
AcDbFaceRecord
 10
0.0
 20
0.0
 30
0.0
 70
   128
 71
   208
 72
   211
 73
   259
 74
  -208
  0
VERTEX
  5
4A7
330
FC
100
AcDbEntity
  8
0
 62
   151
100
AcDbFaceRecord
 10
0.0
 20
0.0
 30
0.0
 70
   128
 71
   261
 72
   208
 73
   259
 74
  -261
  0
VERTEX
  5
4A8
330
FC
100
AcDbEntity
  8
0
 62
   151
100
AcDbFaceRecord
 10
0.0
 20
0.0
 30
0.0
 70
   128
 71
   262
 72
   261
 73
   259
 74
  -262
  0
VERTEX
  5
4A9
330
FC
100
AcDbEntity
  8
0
 62
   151
100
AcDbFaceRecord
 10
0.0
 20
0.0
 30
0.0
 70
   128
 71
   262
 72
   259
 73
   260
 74
  -262
  0
VERTEX
  5
4AA
330
FC
100
AcDbEntity
  8
0
 62
   151
100
AcDbFaceRecord
 10
0.0
 20
0.0
 30
0.0
 70
   128
 71
   263
 72
   264
 73
   258
 74
  -263
  0
VERTEX
  5
4AB
330
FC
100
AcDbEntity
  8
0
 62
   151
100
AcDbFaceRecord
 10
0.0
 20
0.0
 30
0.0
 70
   128
 71
   265
 72
   258
 73
   264
 74
  -265
  0
VERTEX
  5
4AC
330
FC
100
AcDbEntity
  8
0
 62
   151
100
AcDbFaceRecord
 10
0.0
 20
0.0
 30
0.0
 70
   128
 71
   211
 72
   263
 73
   258
 74
  -211
  0
VERTEX
  5
4AD
330
FC
100
AcDbEntity
  8
0
 62
   151
100
AcDbFaceRecord
 10
0.0
 20
0.0
 30
0.0
 70
   128
 71
   260
 72
   258
 73
   265
 74
  -260
  0
VERTEX
  5
4AE
330
FC
100
AcDbEntity
  8
0
 62
   151
100
AcDbFaceRecord
 10
0.0
 20
0.0
 30
0.0
 70
   128
 71
   266
 72
   267
 73
   264
 74
  -266
  0
VERTEX
  5
4AF
330
FC
100
AcDbEntity
  8
0
 62
   151
100
AcDbFaceRecord
 10
0.0
 20
0.0
 30
0.0
 70
   128
 71
   268
 72
   264
 73
   267
 74
  -268
  0
VERTEX
  5
4B0
330
FC
100
AcDbEntity
  8
0
 62
   151
100
AcDbFaceRecord
 10
0.0
 20
0.0
 30
0.0
 70
   128
 71
   263
 72
   266
 73
   264
 74
  -263
  0
VERTEX
  5
4B1
330
FC
100
AcDbEntity
  8
0
 62
   151
100
AcDbFaceRecord
 10
0.0
 20
0.0
 30
0.0
 70
   128
 71
   265
 72
   264
 73
   268
 74
  -265
  0
VERTEX
  5
4B2
330
FC
100
AcDbEntity
  8
0
 62
   151
100
AcDbFaceRecord
 10
0.0
 20
0.0
 30
0.0
 70
   128
 71
   269
 72
   270
 73
   267
 74
  -269
  0
VERTEX
  5
4B3
330
FC
100
AcDbEntity
  8
0
 62
   151
100
AcDbFaceRecord
 10
0.0
 20
0.0
 30
0.0
 70
   128
 71
   271
 72
   267
 73
   270
 74
  -271
  0
VERTEX
  5
4B4
330
FC
100
AcDbEntity
  8
0
 62
   151
100
AcDbFaceRecord
 10
0.0
 20
0.0
 30
0.0
 70
   128
 71
   266
 72
   269
 73
   267
 74
  -266
  0
VERTEX
  5
4B5
330
FC
100
AcDbEntity
  8
0
 62
   151
100
AcDbFaceRecord
 10
0.0
 20
0.0
 30
0.0
 70
   128
 71
   272
 72
   267
 73
   271
 74
  -272
  0
VERTEX
  5
4B6
330
FC
100
AcDbEntity
  8
0
 62
   151
100
AcDbFaceRecord
 10
0.0
 20
0.0
 30
0.0
 70
   128
 71
   268
 72
   267
 73
   272
 74
  -268
  0
VERTEX
  5
4B7
330
FC
100
AcDbEntity
  8
0
 62
   151
100
AcDbFaceRecord
 10
0.0
 20
0.0
 30
0.0
 70
   128
 71
   210
 72
   273
 73
   270
 74
  -210
  0
VERTEX
  5
4B8
330
FC
100
AcDbEntity
  8
0
 62
   151
100
AcDbFaceRecord
 10
0.0
 20
0.0
 30
0.0
 70
   128
 71
   274
 72
   270
 73
   273
 74
  -274
  0
VERTEX
  5
4B9
330
FC
100
AcDbEntity
  8
0
 62
   151
100
AcDbFaceRecord
 10
0.0
 20
0.0
 30
0.0
 70
   128
 71
   269
 72
   210
 73
   270
 74
  -269
  0
VERTEX
  5
4BA
330
FC
100
AcDbEntity
  8
0
 62
   151
100
AcDbFaceRecord
 10
0.0
 20
0.0
 30
0.0
 70
   128
 71
   271
 72
   270
 73
   274
 74
  -271
  0
VERTEX
  5
4BB
330
FC
100
AcDbEntity
  8
0
 62
   151
100
AcDbFaceRecord
 10
0.0
 20
0.0
 30
0.0
 70
   128
 71
   212
 72
   275
 73
   273
 74
  -212
  0
VERTEX
  5
4BC
330
FC
100
AcDbEntity
  8
0
 62
   151
100
AcDbFaceRecord
 10
0.0
 20
0.0
 30
0.0
 70
   128
 71
   274
 72
   273
 73
   275
 74
  -274
  0
VERTEX
  5
4BD
330
FC
100
AcDbEntity
  8
0
 62
   151
100
AcDbFaceRecord
 10
0.0
 20
0.0
 30
0.0
 70
   128
 71
   210
 72
   212
 73
   273
 74
  -210
  0
VERTEX
  5
4BE
330
FC
100
AcDbEntity
  8
0
 62
   151
100
AcDbFaceRecord
 10
0.0
 20
0.0
 30
0.0
 70
   128
 71
   246
 72
   275
 73
   212
 74
  -246
  0
VERTEX
  5
4BF
330
FC
100
AcDbEntity
  8
0
 62
   151
100
AcDbFaceRecord
 10
0.0
 20
0.0
 30
0.0
 70
   128
 71
   276
 72
   275
 73
   246
 74
  -276
  0
VERTEX
  5
4C0
330
FC
100
AcDbEntity
  8
0
 62
   151
100
AcDbFaceRecord
 10
0.0
 20
0.0
 30
0.0
 70
   128
 71
   277
 72
   275
 73
   276
 74
  -277
  0
VERTEX
  5
4C1
330
FC
100
AcDbEntity
  8
0
 62
   151
100
AcDbFaceRecord
 10
0.0
 20
0.0
 30
0.0
 70
   128
 71
   274
 72
   275
 73
   277
 74
  -274
  0
VERTEX
  5
4C2
330
FC
100
AcDbEntity
  8
0
 62
   151
100
AcDbFaceRecord
 10
0.0
 20
0.0
 30
0.0
 70
   128
 71
   211
 72
   210
 73
   269
 74
  -211
  0
VERTEX
  5
4C3
330
FC
100
AcDbEntity
  8
0
 62
   151
100
AcDbFaceRecord
 10
0.0
 20
0.0
 30
0.0
 70
   128
 71
   263
 72
   269
 73
   266
 74
  -263
  0
VERTEX
  5
4C4
330
FC
100
AcDbEntity
  8
0
 62
   151
100
AcDbFaceRecord
 10
0.0
 20
0.0
 30
0.0
 70
   128
 71
   211
 72
   269
 73
   263
 74
  -211
  0
VERTEX
  5
4C5
330
FC
100
AcDbEntity
  8
0
 62
   151
100
AcDbFaceRecord
 10
0.0
 20
0.0
 30
0.0
 70
   128
 71
   261
 72
   209
 73
   208
 74
  -261
  0
VERTEX
  5
4C6
330
FC
100
AcDbEntity
  8
0
 62
   151
100
AcDbFaceRecord
 10
0.0
 20
0.0
 30
0.0
 70
   128
 71
   278
 72
   279
 73
   246
 74
  -278
  0
VERTEX
  5
4C7
330
FC
100
AcDbEntity
  8
0
 62
   151
100
AcDbFaceRecord
 10
0.0
 20
0.0
 30
0.0
 70
   128
 71
   276
 72
   246
 73
   279
 74
  -276
  0
VERTEX
  5
4C8
330
FC
100
AcDbEntity
  8
0
 62
   151
100
AcDbFaceRecord
 10
0.0
 20
0.0
 30
0.0
 70
   128
 71
   209
 72
   278
 73
   246
 74
  -209
  0
VERTEX
  5
4C9
330
FC
100
AcDbEntity
  8
0
 62
   151
100
AcDbFaceRecord
 10
0.0
 20
0.0
 30
0.0
 70
   128
 71
   278
 72
   280
 73
   279
 74
  -278
  0
VERTEX
  5
4CA
330
FC
100
AcDbEntity
  8
0
 62
   151
100
AcDbFaceRecord
 10
0.0
 20
0.0
 30
0.0
 70
   128
 71
   281
 72
   279
 73
   280
 74
  -281
  0
VERTEX
  5
4CB
330
FC
100
AcDbEntity
  8
0
 62
   151
100
AcDbFaceRecord
 10
0.0
 20
0.0
 30
0.0
 70
   128
 71
   281
 72
   276
 73
   279
 74
  -281
  0
VERTEX
  5
4CC
330
FC
100
AcDbEntity
  8
0
 62
   151
100
AcDbFaceRecord
 10
0.0
 20
0.0
 30
0.0
 70
   128
 71
   282
 72
   280
 73
   278
 74
  -282
  0
VERTEX
  5
4CD
330
FC
100
AcDbEntity
  8
0
 62
   151
100
AcDbFaceRecord
 10
0.0
 20
0.0
 30
0.0
 70
   128
 71
   282
 72
   281
 73
   280
 74
  -282
  0
VERTEX
  5
4CE
330
FC
100
AcDbEntity
  8
0
 62
   151
100
AcDbFaceRecord
 10
0.0
 20
0.0
 30
0.0
 70
   128
 71
   283
 72
   278
 73
   209
 74
  -283
  0
VERTEX
  5
4CF
330
FC
100
AcDbEntity
  8
0
 62
   151
100
AcDbFaceRecord
 10
0.0
 20
0.0
 30
0.0
 70
   128
 71
   283
 72
   282
 73
   278
 74
  -283
  0
VERTEX
  5
4D0
330
FC
100
AcDbEntity
  8
0
 62
   151
100
AcDbFaceRecord
 10
0.0
 20
0.0
 30
0.0
 70
   128
 71
   261
 72
   283
 73
   209
 74
  -261
  0
VERTEX
  5
4D1
330
FC
100
AcDbEntity
  8
0
 62
   151
100
AcDbFaceRecord
 10
0.0
 20
0.0
 30
0.0
 70
   128
 71
   284
 72
   276
 73
   281
 74
  -284
  0
VERTEX
  5
4D2
330
FC
100
AcDbEntity
  8
0
 62
   151
100
AcDbFaceRecord
 10
0.0
 20
0.0
 30
0.0
 70
   128
 71
   284
 72
   277
 73
   276
 74
  -284
  0
VERTEX
  5
4D3
330
FC
100
AcDbEntity
  8
0
 62
   151
100
AcDbFaceRecord
 10
0.0
 20
0.0
 30
0.0
 70
   128
 71
   285
 72
   281
 73
   282
 74
  -285
  0
VERTEX
  5
4D4
330
FC
100
AcDbEntity
  8
0
 62
   151
100
AcDbFaceRecord
 10
0.0
 20
0.0
 30
0.0
 70
   128
 71
   285
 72
   284
 73
   281
 74
  -285
  0
VERTEX
  5
4D5
330
FC
100
AcDbEntity
  8
0
 62
   151
100
AcDbFaceRecord
 10
0.0
 20
0.0
 30
0.0
 70
   128
 71
   286
 72
   282
 73
   283
 74
  -286
  0
VERTEX
  5
4D6
330
FC
100
AcDbEntity
  8
0
 62
   151
100
AcDbFaceRecord
 10
0.0
 20
0.0
 30
0.0
 70
   128
 71
   287
 72
   285
 73
   282
 74
  -287
  0
VERTEX
  5
4D7
330
FC
100
AcDbEntity
  8
0
 62
   151
100
AcDbFaceRecord
 10
0.0
 20
0.0
 30
0.0
 70
   128
 71
   286
 72
   287
 73
   282
 74
  -286
  0
VERTEX
  5
4D8
330
FC
100
AcDbEntity
  8
0
 62
   151
100
AcDbFaceRecord
 10
0.0
 20
0.0
 30
0.0
 70
   128
 71
   262
 72
   283
 73
   261
 74
  -262
  0
VERTEX
  5
4D9
330
FC
100
AcDbEntity
  8
0
 62
   151
100
AcDbFaceRecord
 10
0.0
 20
0.0
 30
0.0
 70
   128
 71
   262
 72
   286
 73
   283
 74
  -262
  0
VERTEX
  5
4DA
330
FC
100
AcDbEntity
  8
0
 62
   151
100
AcDbFaceRecord
 10
0.0
 20
0.0
 30
0.0
 70
   128
 71
   288
 72
   240
 73
   239
 74
  -288
  0
VERTEX
  5
4DB
330
FC
100
AcDbEntity
  8
0
 62
   151
100
AcDbFaceRecord
 10
0.0
 20
0.0
 30
0.0
 70
   128
 71
   289
 72
   235
 73
   240
 74
  -289
  0
VERTEX
  5
4DC
330
FC
100
AcDbEntity
  8
0
 62
   151
100
AcDbFaceRecord
 10
0.0
 20
0.0
 30
0.0
 70
   128
 71
   290
 72
   289
 73
   240
 74
  -290
  0
VERTEX
  5
4DD
330
FC
100
AcDbEntity
  8
0
 62
   151
100
AcDbFaceRecord
 10
0.0
 20
0.0
 30
0.0
 70
   128
 71
   291
 72
   290
 73
   240
 74
  -291
  0
VERTEX
  5
4DE
330
FC
100
AcDbEntity
  8
0
 62
   151
100
AcDbFaceRecord
 10
0.0
 20
0.0
 30
0.0
 70
   128
 71
   291
 72
   240
 73
   288
 74
  -291
  0
VERTEX
  5
4DF
330
FC
100
AcDbEntity
  8
0
 62
   151
100
AcDbFaceRecord
 10
0.0
 20
0.0
 30
0.0
 70
   128
 71
   292
 72
   239
 73
   249
 74
  -292
  0
VERTEX
  5
4E0
330
FC
100
AcDbEntity
  8
0
 62
   151
100
AcDbFaceRecord
 10
0.0
 20
0.0
 30
0.0
 70
   128
 71
   292
 72
   288
 73
   239
 74
  -292
  0
VERTEX
  5
4E1
330
FC
100
AcDbEntity
  8
0
 62
   151
100
AcDbFaceRecord
 10
0.0
 20
0.0
 30
0.0
 70
   128
 71
   293
 72
   249
 73
   252
 74
  -293
  0
VERTEX
  5
4E2
330
FC
100
AcDbEntity
  8
0
 62
   151
100
AcDbFaceRecord
 10
0.0
 20
0.0
 30
0.0
 70
   128
 71
   292
 72
   249
 73
   294
 74
  -292
  0
VERTEX
  5
4E3
330
FC
100
AcDbEntity
  8
0
 62
   151
100
AcDbFaceRecord
 10
0.0
 20
0.0
 30
0.0
 70
   128
 71
   293
 72
   294
 73
   249
 74
  -293
  0
VERTEX
  5
4E4
330
FC
100
AcDbEntity
  8
0
 62
   151
100
AcDbFaceRecord
 10
0.0
 20
0.0
 30
0.0
 70
   128
 71
   295
 72
   252
 73
   253
 74
  -295
  0
VERTEX
  5
4E5
330
FC
100
AcDbEntity
  8
0
 62
   151
100
AcDbFaceRecord
 10
0.0
 20
0.0
 30
0.0
 70
   128
 71
   293
 72
   252
 73
   295
 74
  -293
  0
VERTEX
  5
4E6
330
FC
100
AcDbEntity
  8
0
 62
   151
100
AcDbFaceRecord
 10
0.0
 20
0.0
 30
0.0
 70
   128
 71
   296
 72
   253
 73
   254
 74
  -296
  0
VERTEX
  5
4E7
330
FC
100
AcDbEntity
  8
0
 62
   151
100
AcDbFaceRecord
 10
0.0
 20
0.0
 30
0.0
 70
   128
 71
   296
 72
   295
 73
   253
 74
  -296
  0
VERTEX
  5
4E8
330
FC
100
AcDbEntity
  8
0
 62
   151
100
AcDbFaceRecord
 10
0.0
 20
0.0
 30
0.0
 70
   128
 71
   297
 72
   254
 73
   222
 74
  -297
  0
VERTEX
  5
4E9
330
FC
100
AcDbEntity
  8
0
 62
   151
100
AcDbFaceRecord
 10
0.0
 20
0.0
 30
0.0
 70
   128
 71
   297
 72
   298
 73
   254
 74
  -297
  0
VERTEX
  5
4EA
330
FC
100
AcDbEntity
  8
0
 62
   151
100
AcDbFaceRecord
 10
0.0
 20
0.0
 30
0.0
 70
   128
 71
   296
 72
   254
 73
   298
 74
  -296
  0
VERTEX
  5
4EB
330
FC
100
AcDbEntity
  8
0
 62
   151
100
AcDbFaceRecord
 10
0.0
 20
0.0
 30
0.0
 70
   128
 71
   223
 72
   299
 73
   222
 74
  -223
  0
VERTEX
  5
4EC
330
FC
100
AcDbEntity
  8
0
 62
   151
100
AcDbFaceRecord
 10
0.0
 20
0.0
 30
0.0
 70
   128
 71
   300
 72
   222
 73
   299
 74
  -300
  0
VERTEX
  5
4ED
330
FC
100
AcDbEntity
  8
0
 62
   151
100
AcDbFaceRecord
 10
0.0
 20
0.0
 30
0.0
 70
   128
 71
   297
 72
   222
 73
   300
 74
  -297
  0
VERTEX
  5
4EE
330
FC
100
AcDbEntity
  8
0
 62
   151
100
AcDbFaceRecord
 10
0.0
 20
0.0
 30
0.0
 70
   128
 71
   223
 72
   301
 73
   299
 74
  -223
  0
VERTEX
  5
4EF
330
FC
100
AcDbEntity
  8
0
 62
   151
100
AcDbFaceRecord
 10
0.0
 20
0.0
 30
0.0
 70
   128
 71
   302
 72
   299
 73
   301
 74
  -302
  0
VERTEX
  5
4F0
330
FC
100
AcDbEntity
  8
0
 62
   151
100
AcDbFaceRecord
 10
0.0
 20
0.0
 30
0.0
 70
   128
 71
   302
 72
   300
 73
   299
 74
  -302
  0
VERTEX
  5
4F1
330
FC
100
AcDbEntity
  8
0
 62
   151
100
AcDbFaceRecord
 10
0.0
 20
0.0
 30
0.0
 70
   128
 71
   303
 72
   301
 73
   223
 74
  -303
  0
VERTEX
  5
4F2
330
FC
100
AcDbEntity
  8
0
 62
   151
100
AcDbFaceRecord
 10
0.0
 20
0.0
 30
0.0
 70
   128
 71
   302
 72
   301
 73
   304
 74
  -302
  0
VERTEX
  5
4F3
330
FC
100
AcDbEntity
  8
0
 62
   151
100
AcDbFaceRecord
 10
0.0
 20
0.0
 30
0.0
 70
   128
 71
   303
 72
   304
 73
   301
 74
  -303
  0
VERTEX
  5
4F4
330
FC
100
AcDbEntity
  8
0
 62
   151
100
AcDbFaceRecord
 10
0.0
 20
0.0
 30
0.0
 70
   128
 71
   305
 72
   223
 73
   221
 74
  -305
  0
VERTEX
  5
4F5
330
FC
100
AcDbEntity
  8
0
 62
   151
100
AcDbFaceRecord
 10
0.0
 20
0.0
 30
0.0
 70
   128
 71
   303
 72
   223
 73
   305
 74
  -303
  0
VERTEX
  5
4F6
330
FC
100
AcDbEntity
  8
0
 62
   151
100
AcDbFaceRecord
 10
0.0
 20
0.0
 30
0.0
 70
   128
 71
   306
 72
   221
 73
   226
 74
  -306
  0
VERTEX
  5
4F7
330
FC
100
AcDbEntity
  8
0
 62
   151
100
AcDbFaceRecord
 10
0.0
 20
0.0
 30
0.0
 70
   128
 71
   306
 72
   305
 73
   221
 74
  -306
  0
VERTEX
  5
4F8
330
FC
100
AcDbEntity
  8
0
 62
   151
100
AcDbFaceRecord
 10
0.0
 20
0.0
 30
0.0
 70
   128
 71
   307
 72
   226
 73
   229
 74
  -307
  0
VERTEX
  5
4F9
330
FC
100
AcDbEntity
  8
0
 62
   151
100
AcDbFaceRecord
 10
0.0
 20
0.0
 30
0.0
 70
   128
 71
   306
 72
   226
 73
   308
 74
  -306
  0
VERTEX
  5
4FA
330
FC
100
AcDbEntity
  8
0
 62
   151
100
AcDbFaceRecord
 10
0.0
 20
0.0
 30
0.0
 70
   128
 71
   307
 72
   308
 73
   226
 74
  -307
  0
VERTEX
  5
4FB
330
FC
100
AcDbEntity
  8
0
 62
   151
100
AcDbFaceRecord
 10
0.0
 20
0.0
 30
0.0
 70
   128
 71
   309
 72
   229
 73
   232
 74
  -309
  0
VERTEX
  5
4FC
330
FC
100
AcDbEntity
  8
0
 62
   151
100
AcDbFaceRecord
 10
0.0
 20
0.0
 30
0.0
 70
   128
 71
   307
 72
   229
 73
   309
 74
  -307
  0
VERTEX
  5
4FD
330
FC
100
AcDbEntity
  8
0
 62
   151
100
AcDbFaceRecord
 10
0.0
 20
0.0
 30
0.0
 70
   128
 71
   310
 72
   232
 73
   236
 74
  -310
  0
VERTEX
  5
4FE
330
FC
100
AcDbEntity
  8
0
 62
   151
100
AcDbFaceRecord
 10
0.0
 20
0.0
 30
0.0
 70
   128
 71
   310
 72
   309
 73
   232
 74
  -310
  0
VERTEX
  5
4FF
330
FC
100
AcDbEntity
  8
0
 62
   151
100
AcDbFaceRecord
 10
0.0
 20
0.0
 30
0.0
 70
   128
 71
   311
 72
   236
 73
   235
 74
  -311
  0
VERTEX
  5
500
330
FC
100
AcDbEntity
  8
0
 62
   151
100
AcDbFaceRecord
 10
0.0
 20
0.0
 30
0.0
 70
   128
 71
   310
 72
   236
 73
   312
 74
  -310
  0
VERTEX
  5
501
330
FC
100
AcDbEntity
  8
0
 62
   151
100
AcDbFaceRecord
 10
0.0
 20
0.0
 30
0.0
 70
   128
 71
   311
 72
   312
 73
   236
 74
  -311
  0
VERTEX
  5
502
330
FC
100
AcDbEntity
  8
0
 62
   151
100
AcDbFaceRecord
 10
0.0
 20
0.0
 30
0.0
 70
   128
 71
   313
 72
   235
 73
   289
 74
  -313
  0
VERTEX
  5
503
330
FC
100
AcDbEntity
  8
0
 62
   151
100
AcDbFaceRecord
 10
0.0
 20
0.0
 30
0.0
 70
   128
 71
   311
 72
   235
 73
   313
 74
  -311
  0
VERTEX
  5
504
330
FC
100
AcDbEntity
  8
0
 62
   151
100
AcDbFaceRecord
 10
0.0
 20
0.0
 30
0.0
 70
   128
 71
   314
 72
   289
 73
   290
 74
  -314
  0
VERTEX
  5
505
330
FC
100
AcDbEntity
  8
0
 62
   151
100
AcDbFaceRecord
 10
0.0
 20
0.0
 30
0.0
 70
   128
 71
   314
 72
   313
 73
   289
 74
  -314
  0
VERTEX
  5
506
330
FC
100
AcDbEntity
  8
0
 62
   151
100
AcDbFaceRecord
 10
0.0
 20
0.0
 30
0.0
 70
   128
 71
   314
 72
   290
 73
   315
 74
  -314
  0
VERTEX
  5
507
330
FC
100
AcDbEntity
  8
0
 62
   151
100
AcDbFaceRecord
 10
0.0
 20
0.0
 30
0.0
 70
   128
 71
   291
 72
   315
 73
   290
 74
  -291
  0
VERTEX
  5
508
330
FC
100
AcDbEntity
  8
0
 62
   151
100
AcDbFaceRecord
 10
0.0
 20
0.0
 30
0.0
 70
   128
 71
   316
 72
   295
 73
   300
 74
  -316
  0
VERTEX
  5
509
330
FC
100
AcDbEntity
  8
0
 62
   151
100
AcDbFaceRecord
 10
0.0
 20
0.0
 30
0.0
 70
   128
 71
   298
 72
   300
 73
   295
 74
  -298
  0
VERTEX
  5
50A
330
FC
100
AcDbEntity
  8
0
 62
   151
100
AcDbFaceRecord
 10
0.0
 20
0.0
 30
0.0
 70
   128
 71
   317
 72
   300
 73
   305
 74
  -317
  0
VERTEX
  5
50B
330
FC
100
AcDbEntity
  8
0
 62
   151
100
AcDbFaceRecord
 10
0.0
 20
0.0
 30
0.0
 70
   128
 71
   304
 72
   305
 73
   300
 74
  -304
  0
VERTEX
  5
50C
330
FC
100
AcDbEntity
  8
0
 62
   151
100
AcDbFaceRecord
 10
0.0
 20
0.0
 30
0.0
 70
   128
 71
   317
 72
   316
 73
   300
 74
  -317
  0
VERTEX
  5
50D
330
FC
100
AcDbEntity
  8
0
 62
   151
100
AcDbFaceRecord
 10
0.0
 20
0.0
 30
0.0
 70
   128
 71
   297
 72
   300
 73
   298
 74
  -297
  0
VERTEX
  5
50E
330
FC
100
AcDbEntity
  8
0
 62
   151
100
AcDbFaceRecord
 10
0.0
 20
0.0
 30
0.0
 70
   128
 71
   302
 72
   304
 73
   300
 74
  -302
  0
VERTEX
  5
50F
330
FC
100
AcDbEntity
  8
0
 62
   151
100
AcDbFaceRecord
 10
0.0
 20
0.0
 30
0.0
 70
   128
 71
   318
 72
   288
 73
   295
 74
  -318
  0
VERTEX
  5
510
330
FC
100
AcDbEntity
  8
0
 62
   151
100
AcDbFaceRecord
 10
0.0
 20
0.0
 30
0.0
 70
   128
 71
   294
 72
   295
 73
   288
 74
  -294
  0
VERTEX
  5
511
330
FC
100
AcDbEntity
  8
0
 62
   151
100
AcDbFaceRecord
 10
0.0
 20
0.0
 30
0.0
 70
   128
 71
   319
 72
   318
 73
   295
 74
  -319
  0
VERTEX
  5
512
330
FC
100
AcDbEntity
  8
0
 62
   151
100
AcDbFaceRecord
 10
0.0
 20
0.0
 30
0.0
 70
   128
 71
   320
 72
   319
 73
   295
 74
  -320
  0
VERTEX
  5
513
330
FC
100
AcDbEntity
  8
0
 62
   151
100
AcDbFaceRecord
 10
0.0
 20
0.0
 30
0.0
 70
   128
 71
   316
 72
   320
 73
   295
 74
  -316
  0
VERTEX
  5
514
330
FC
100
AcDbEntity
  8
0
 62
   151
100
AcDbFaceRecord
 10
0.0
 20
0.0
 30
0.0
 70
   128
 71
   296
 72
   298
 73
   295
 74
  -296
  0
VERTEX
  5
515
330
FC
100
AcDbEntity
  8
0
 62
   151
100
AcDbFaceRecord
 10
0.0
 20
0.0
 30
0.0
 70
   128
 71
   293
 72
   295
 73
   294
 74
  -293
  0
VERTEX
  5
516
330
FC
100
AcDbEntity
  8
0
 62
   151
100
AcDbFaceRecord
 10
0.0
 20
0.0
 30
0.0
 70
   128
 71
   321
 72
   313
 73
   288
 74
  -321
  0
VERTEX
  5
517
330
FC
100
AcDbEntity
  8
0
 62
   151
100
AcDbFaceRecord
 10
0.0
 20
0.0
 30
0.0
 70
   128
 71
   315
 72
   288
 73
   313
 74
  -315
  0
VERTEX
  5
518
330
FC
100
AcDbEntity
  8
0
 62
   151
100
AcDbFaceRecord
 10
0.0
 20
0.0
 30
0.0
 70
   128
 71
   321
 72
   288
 73
   318
 74
  -321
  0
VERTEX
  5
519
330
FC
100
AcDbEntity
  8
0
 62
   151
100
AcDbFaceRecord
 10
0.0
 20
0.0
 30
0.0
 70
   128
 71
   291
 72
   288
 73
   315
 74
  -291
  0
VERTEX
  5
51A
330
FC
100
AcDbEntity
  8
0
 62
   151
100
AcDbFaceRecord
 10
0.0
 20
0.0
 30
0.0
 70
   128
 71
   292
 72
   294
 73
   288
 74
  -292
  0
VERTEX
  5
51B
330
FC
100
AcDbEntity
  8
0
 62
   151
100
AcDbFaceRecord
 10
0.0
 20
0.0
 30
0.0
 70
   128
 71
   322
 72
   309
 73
   313
 74
  -322
  0
VERTEX
  5
51C
330
FC
100
AcDbEntity
  8
0
 62
   151
100
AcDbFaceRecord
 10
0.0
 20
0.0
 30
0.0
 70
   128
 71
   312
 72
   313
 73
   309
 74
  -312
  0
VERTEX
  5
51D
330
FC
100
AcDbEntity
  8
0
 62
   151
100
AcDbFaceRecord
 10
0.0
 20
0.0
 30
0.0
 70
   128
 71
   321
 72
   322
 73
   313
 74
  -321
  0
VERTEX
  5
51E
330
FC
100
AcDbEntity
  8
0
 62
   151
100
AcDbFaceRecord
 10
0.0
 20
0.0
 30
0.0
 70
   128
 71
   311
 72
   313
 73
   312
 74
  -311
  0
VERTEX
  5
51F
330
FC
100
AcDbEntity
  8
0
 62
   151
100
AcDbFaceRecord
 10
0.0
 20
0.0
 30
0.0
 70
   128
 71
   314
 72
   315
 73
   313
 74
  -314
  0
VERTEX
  5
520
330
FC
100
AcDbEntity
  8
0
 62
   151
100
AcDbFaceRecord
 10
0.0
 20
0.0
 30
0.0
 70
   128
 71
   323
 72
   305
 73
   309
 74
  -323
  0
VERTEX
  5
521
330
FC
100
AcDbEntity
  8
0
 62
   151
100
AcDbFaceRecord
 10
0.0
 20
0.0
 30
0.0
 70
   128
 71
   308
 72
   309
 73
   305
 74
  -308
  0
VERTEX
  5
522
330
FC
100
AcDbEntity
  8
0
 62
   151
100
AcDbFaceRecord
 10
0.0
 20
0.0
 30
0.0
 70
   128
 71
   324
 72
   323
 73
   309
 74
  -324
  0
VERTEX
  5
523
330
FC
100
AcDbEntity
  8
0
 62
   151
100
AcDbFaceRecord
 10
0.0
 20
0.0
 30
0.0
 70
   128
 71
   325
 72
   324
 73
   309
 74
  -325
  0
VERTEX
  5
524
330
FC
100
AcDbEntity
  8
0
 62
   151
100
AcDbFaceRecord
 10
0.0
 20
0.0
 30
0.0
 70
   128
 71
   322
 72
   325
 73
   309
 74
  -322
  0
VERTEX
  5
525
330
FC
100
AcDbEntity
  8
0
 62
   151
100
AcDbFaceRecord
 10
0.0
 20
0.0
 30
0.0
 70
   128
 71
   307
 72
   309
 73
   308
 74
  -307
  0
VERTEX
  5
526
330
FC
100
AcDbEntity
  8
0
 62
   151
100
AcDbFaceRecord
 10
0.0
 20
0.0
 30
0.0
 70
   128
 71
   310
 72
   312
 73
   309
 74
  -310
  0
VERTEX
  5
527
330
FC
100
AcDbEntity
  8
0
 62
   151
100
AcDbFaceRecord
 10
0.0
 20
0.0
 30
0.0
 70
   128
 71
   323
 72
   317
 73
   305
 74
  -323
  0
VERTEX
  5
528
330
FC
100
AcDbEntity
  8
0
 62
   151
100
AcDbFaceRecord
 10
0.0
 20
0.0
 30
0.0
 70
   128
 71
   303
 72
   305
 73
   304
 74
  -303
  0
VERTEX
  5
529
330
FC
100
AcDbEntity
  8
0
 62
   151
100
AcDbFaceRecord
 10
0.0
 20
0.0
 30
0.0
 70
   128
 71
   306
 72
   308
 73
   305
 74
  -306
  0
VERTEX
  5
52A
330
FC
100
AcDbEntity
  8
0
 62
   151
100
AcDbFaceRecord
 10
0.0
 20
0.0
 30
0.0
 70
   128
 71
   326
 72
   318
 73
   319
 74
  -326
  0
VERTEX
  5
52B
330
FC
100
AcDbEntity
  8
0
 62
   151
100
AcDbFaceRecord
 10
0.0
 20
0.0
 30
0.0
 70
   128
 71
   327
 72
   321
 73
   318
 74
  -327
  0
VERTEX
  5
52C
330
FC
100
AcDbEntity
  8
0
 62
   151
100
AcDbFaceRecord
 10
0.0
 20
0.0
 30
0.0
 70
   128
 71
   327
 72
   318
 73
   326
 74
  -327
  0
VERTEX
  5
52D
330
FC
100
AcDbEntity
  8
0
 62
   151
100
AcDbFaceRecord
 10
0.0
 20
0.0
 30
0.0
 70
   128
 71
   328
 72
   319
 73
   320
 74
  -328
  0
VERTEX
  5
52E
330
FC
100
AcDbEntity
  8
0
 62
   151
100
AcDbFaceRecord
 10
0.0
 20
0.0
 30
0.0
 70
   128
 71
   326
 72
   319
 73
   328
 74
  -326
  0
VERTEX
  5
52F
330
FC
100
AcDbEntity
  8
0
 62
   151
100
AcDbFaceRecord
 10
0.0
 20
0.0
 30
0.0
 70
   128
 71
   316
 72
   329
 73
   320
 74
  -316
  0
VERTEX
  5
530
330
FC
100
AcDbEntity
  8
0
 62
   151
100
AcDbFaceRecord
 10
0.0
 20
0.0
 30
0.0
 70
   128
 71
   330
 72
   320
 73
   329
 74
  -330
  0
VERTEX
  5
531
330
FC
100
AcDbEntity
  8
0
 62
   151
100
AcDbFaceRecord
 10
0.0
 20
0.0
 30
0.0
 70
   128
 71
   328
 72
   320
 73
   330
 74
  -328
  0
VERTEX
  5
532
330
FC
100
AcDbEntity
  8
0
 62
   151
100
AcDbFaceRecord
 10
0.0
 20
0.0
 30
0.0
 70
   128
 71
   331
 72
   329
 73
   316
 74
  -331
  0
VERTEX
  5
533
330
FC
100
AcDbEntity
  8
0
 62
   151
100
AcDbFaceRecord
 10
0.0
 20
0.0
 30
0.0
 70
   128
 71
   330
 72
   329
 73
   331
 74
  -330
  0
VERTEX
  5
534
330
FC
100
AcDbEntity
  8
0
 62
   151
100
AcDbFaceRecord
 10
0.0
 20
0.0
 30
0.0
 70
   128
 71
   332
 72
   316
 73
   317
 74
  -332
  0
VERTEX
  5
535
330
FC
100
AcDbEntity
  8
0
 62
   151
100
AcDbFaceRecord
 10
0.0
 20
0.0
 30
0.0
 70
   128
 71
   333
 72
   316
 73
   332
 74
  -333
  0
VERTEX
  5
536
330
FC
100
AcDbEntity
  8
0
 62
   151
100
AcDbFaceRecord
 10
0.0
 20
0.0
 30
0.0
 70
   128
 71
   331
 72
   316
 73
   333
 74
  -331
  0
VERTEX
  5
537
330
FC
100
AcDbEntity
  8
0
 62
   151
100
AcDbFaceRecord
 10
0.0
 20
0.0
 30
0.0
 70
   128
 71
   332
 72
   317
 73
   323
 74
  -332
  0
VERTEX
  5
538
330
FC
100
AcDbEntity
  8
0
 62
   151
100
AcDbFaceRecord
 10
0.0
 20
0.0
 30
0.0
 70
   128
 71
   334
 72
   323
 73
   324
 74
  -334
  0
VERTEX
  5
539
330
FC
100
AcDbEntity
  8
0
 62
   151
100
AcDbFaceRecord
 10
0.0
 20
0.0
 30
0.0
 70
   128
 71
   332
 72
   323
 73
   334
 74
  -332
  0
VERTEX
  5
53A
330
FC
100
AcDbEntity
  8
0
 62
   151
100
AcDbFaceRecord
 10
0.0
 20
0.0
 30
0.0
 70
   128
 71
   335
 72
   324
 73
   325
 74
  -335
  0
VERTEX
  5
53B
330
FC
100
AcDbEntity
  8
0
 62
   151
100
AcDbFaceRecord
 10
0.0
 20
0.0
 30
0.0
 70
   128
 71
   335
 72
   334
 73
   324
 74
  -335
  0
VERTEX
  5
53C
330
FC
100
AcDbEntity
  8
0
 62
   151
100
AcDbFaceRecord
 10
0.0
 20
0.0
 30
0.0
 70
   128
 71
   322
 72
   336
 73
   325
 74
  -322
  0
VERTEX
  5
53D
330
FC
100
AcDbEntity
  8
0
 62
   151
100
AcDbFaceRecord
 10
0.0
 20
0.0
 30
0.0
 70
   128
 71
   337
 72
   325
 73
   336
 74
  -337
  0
VERTEX
  5
53E
330
FC
100
AcDbEntity
  8
0
 62
   151
100
AcDbFaceRecord
 10
0.0
 20
0.0
 30
0.0
 70
   128
 71
   335
 72
   325
 73
   337
 74
  -335
  0
VERTEX
  5
53F
330
FC
100
AcDbEntity
  8
0
 62
   151
100
AcDbFaceRecord
 10
0.0
 20
0.0
 30
0.0
 70
   128
 71
   338
 72
   336
 73
   322
 74
  -338
  0
VERTEX
  5
540
330
FC
100
AcDbEntity
  8
0
 62
   151
100
AcDbFaceRecord
 10
0.0
 20
0.0
 30
0.0
 70
   128
 71
   337
 72
   336
 73
   338
 74
  -337
  0
VERTEX
  5
541
330
FC
100
AcDbEntity
  8
0
 62
   151
100
AcDbFaceRecord
 10
0.0
 20
0.0
 30
0.0
 70
   128
 71
   327
 72
   322
 73
   321
 74
  -327
  0
VERTEX
  5
542
330
FC
100
AcDbEntity
  8
0
 62
   151
100
AcDbFaceRecord
 10
0.0
 20
0.0
 30
0.0
 70
   128
 71
   339
 72
   322
 73
   327
 74
  -339
  0
VERTEX
  5
543
330
FC
100
AcDbEntity
  8
0
 62
   151
100
AcDbFaceRecord
 10
0.0
 20
0.0
 30
0.0
 70
   128
 71
   338
 72
   322
 73
   339
 74
  -338
  0
VERTEX
  5
544
330
FC
100
AcDbEntity
  8
0
 62
   151
100
AcDbFaceRecord
 10
0.0
 20
0.0
 30
0.0
 70
   128
 71
   340
 72
   277
 73
   341
 74
  -340
  0
VERTEX
  5
545
330
FC
100
AcDbEntity
  8
0
 62
   151
100
AcDbFaceRecord
 10
0.0
 20
0.0
 30
0.0
 70
   128
 71
   284
 72
   341
 73
   277
 74
  -284
  0
VERTEX
  5
546
330
FC
100
AcDbEntity
  8
0
 62
   151
100
AcDbFaceRecord
 10
0.0
 20
0.0
 30
0.0
 70
   128
 71
   335
 72
   340
 73
   341
 74
  -335
  0
VERTEX
  5
547
330
FC
100
AcDbEntity
  8
0
 62
   151
100
AcDbFaceRecord
 10
0.0
 20
0.0
 30
0.0
 70
   128
 71
   342
 72
   341
 73
   284
 74
  -342
  0
VERTEX
  5
548
330
FC
100
AcDbEntity
  8
0
 62
   151
100
AcDbFaceRecord
 10
0.0
 20
0.0
 30
0.0
 70
   128
 71
   334
 72
   341
 73
   342
 74
  -334
  0
VERTEX
  5
549
330
FC
100
AcDbEntity
  8
0
 62
   151
100
AcDbFaceRecord
 10
0.0
 20
0.0
 30
0.0
 70
   128
 71
   335
 72
   341
 73
   334
 74
  -335
  0
VERTEX
  5
54A
330
FC
100
AcDbEntity
  8
0
 62
   151
100
AcDbFaceRecord
 10
0.0
 20
0.0
 30
0.0
 70
   128
 71
   340
 72
   274
 73
   277
 74
  -340
  0
VERTEX
  5
54B
330
FC
100
AcDbEntity
  8
0
 62
   151
100
AcDbFaceRecord
 10
0.0
 20
0.0
 30
0.0
 70
   128
 71
   343
 72
   271
 73
   274
 74
  -343
  0
VERTEX
  5
54C
330
FC
100
AcDbEntity
  8
0
 62
   151
100
AcDbFaceRecord
 10
0.0
 20
0.0
 30
0.0
 70
   128
 71
   340
 72
   343
 73
   274
 74
  -340
  0
VERTEX
  5
54D
330
FC
100
AcDbEntity
  8
0
 62
   151
100
AcDbFaceRecord
 10
0.0
 20
0.0
 30
0.0
 70
   128
 71
   344
 72
   272
 73
   271
 74
  -344
  0
VERTEX
  5
54E
330
FC
100
AcDbEntity
  8
0
 62
   151
100
AcDbFaceRecord
 10
0.0
 20
0.0
 30
0.0
 70
   128
 71
   343
 72
   344
 73
   271
 74
  -343
  0
VERTEX
  5
54F
330
FC
100
AcDbEntity
  8
0
 62
   151
100
AcDbFaceRecord
 10
0.0
 20
0.0
 30
0.0
 70
   128
 71
   345
 72
   268
 73
   272
 74
  -345
  0
VERTEX
  5
550
330
FC
100
AcDbEntity
  8
0
 62
   151
100
AcDbFaceRecord
 10
0.0
 20
0.0
 30
0.0
 70
   128
 71
   344
 72
   345
 73
   272
 74
  -344
  0
VERTEX
  5
551
330
FC
100
AcDbEntity
  8
0
 62
   151
100
AcDbFaceRecord
 10
0.0
 20
0.0
 30
0.0
 70
   128
 71
   346
 72
   265
 73
   268
 74
  -346
  0
VERTEX
  5
552
330
FC
100
AcDbEntity
  8
0
 62
   151
100
AcDbFaceRecord
 10
0.0
 20
0.0
 30
0.0
 70
   128
 71
   345
 72
   346
 73
   268
 74
  -345
  0
VERTEX
  5
553
330
FC
100
AcDbEntity
  8
0
 62
   151
100
AcDbFaceRecord
 10
0.0
 20
0.0
 30
0.0
 70
   128
 71
   347
 72
   260
 73
   265
 74
  -347
  0
VERTEX
  5
554
330
FC
100
AcDbEntity
  8
0
 62
   151
100
AcDbFaceRecord
 10
0.0
 20
0.0
 30
0.0
 70
   128
 71
   346
 72
   347
 73
   265
 74
  -346
  0
VERTEX
  5
555
330
FC
100
AcDbEntity
  8
0
 62
   151
100
AcDbFaceRecord
 10
0.0
 20
0.0
 30
0.0
 70
   128
 71
   348
 72
   260
 73
   347
 74
  -348
  0
VERTEX
  5
556
330
FC
100
AcDbEntity
  8
0
 62
   151
100
AcDbFaceRecord
 10
0.0
 20
0.0
 30
0.0
 70
   128
 71
   348
 72
   262
 73
   260
 74
  -348
  0
VERTEX
  5
557
330
FC
100
AcDbEntity
  8
0
 62
   151
100
AcDbFaceRecord
 10
0.0
 20
0.0
 30
0.0
 70
   128
 71
   326
 72
   347
 73
   346
 74
  -326
  0
VERTEX
  5
558
330
FC
100
AcDbEntity
  8
0
 62
   151
100
AcDbFaceRecord
 10
0.0
 20
0.0
 30
0.0
 70
   128
 71
   328
 72
   348
 73
   347
 74
  -328
  0
VERTEX
  5
559
330
FC
100
AcDbEntity
  8
0
 62
   151
100
AcDbFaceRecord
 10
0.0
 20
0.0
 30
0.0
 70
   128
 71
   326
 72
   328
 73
   347
 74
  -326
  0
VERTEX
  5
55A
330
FC
100
AcDbEntity
  8
0
 62
   151
100
AcDbFaceRecord
 10
0.0
 20
0.0
 30
0.0
 70
   128
 71
   327
 72
   346
 73
   345
 74
  -327
  0
VERTEX
  5
55B
330
FC
100
AcDbEntity
  8
0
 62
   151
100
AcDbFaceRecord
 10
0.0
 20
0.0
 30
0.0
 70
   128
 71
   327
 72
   326
 73
   346
 74
  -327
  0
VERTEX
  5
55C
330
FC
100
AcDbEntity
  8
0
 62
   151
100
AcDbFaceRecord
 10
0.0
 20
0.0
 30
0.0
 70
   128
 71
   339
 72
   345
 73
   344
 74
  -339
  0
VERTEX
  5
55D
330
FC
100
AcDbEntity
  8
0
 62
   151
100
AcDbFaceRecord
 10
0.0
 20
0.0
 30
0.0
 70
   128
 71
   339
 72
   327
 73
   345
 74
  -339
  0
VERTEX
  5
55E
330
FC
100
AcDbEntity
  8
0
 62
   151
100
AcDbFaceRecord
 10
0.0
 20
0.0
 30
0.0
 70
   128
 71
   338
 72
   344
 73
   343
 74
  -338
  0
VERTEX
  5
55F
330
FC
100
AcDbEntity
  8
0
 62
   151
100
AcDbFaceRecord
 10
0.0
 20
0.0
 30
0.0
 70
   128
 71
   338
 72
   339
 73
   344
 74
  -338
  0
VERTEX
  5
560
330
FC
100
AcDbEntity
  8
0
 62
   151
100
AcDbFaceRecord
 10
0.0
 20
0.0
 30
0.0
 70
   128
 71
   337
 72
   343
 73
   340
 74
  -337
  0
VERTEX
  5
561
330
FC
100
AcDbEntity
  8
0
 62
   151
100
AcDbFaceRecord
 10
0.0
 20
0.0
 30
0.0
 70
   128
 71
   337
 72
   338
 73
   343
 74
  -337
  0
VERTEX
  5
562
330
FC
100
AcDbEntity
  8
0
 62
   151
100
AcDbFaceRecord
 10
0.0
 20
0.0
 30
0.0
 70
   128
 71
   335
 72
   337
 73
   340
 74
  -335
  0
VERTEX
  5
563
330
FC
100
AcDbEntity
  8
0
 62
   151
100
AcDbFaceRecord
 10
0.0
 20
0.0
 30
0.0
 70
   128
 71
   342
 72
   284
 73
   285
 74
  -342
  0
VERTEX
  5
564
330
FC
100
AcDbEntity
  8
0
 62
   151
100
AcDbFaceRecord
 10
0.0
 20
0.0
 30
0.0
 70
   128
 71
   349
 72
   285
 73
   287
 74
  -349
  0
VERTEX
  5
565
330
FC
100
AcDbEntity
  8
0
 62
   151
100
AcDbFaceRecord
 10
0.0
 20
0.0
 30
0.0
 70
   128
 71
   349
 72
   342
 73
   285
 74
  -349
  0
VERTEX
  5
566
330
FC
100
AcDbEntity
  8
0
 62
   151
100
AcDbFaceRecord
 10
0.0
 20
0.0
 30
0.0
 70
   128
 71
   350
 72
   287
 73
   286
 74
  -350
  0
VERTEX
  5
567
330
FC
100
AcDbEntity
  8
0
 62
   151
100
AcDbFaceRecord
 10
0.0
 20
0.0
 30
0.0
 70
   128
 71
   350
 72
   349
 73
   287
 74
  -350
  0
VERTEX
  5
568
330
FC
100
AcDbEntity
  8
0
 62
   151
100
AcDbFaceRecord
 10
0.0
 20
0.0
 30
0.0
 70
   128
 71
   351
 72
   286
 73
   262
 74
  -351
  0
VERTEX
  5
569
330
FC
100
AcDbEntity
  8
0
 62
   151
100
AcDbFaceRecord
 10
0.0
 20
0.0
 30
0.0
 70
   128
 71
   351
 72
   350
 73
   286
 74
  -351
  0
VERTEX
  5
56A
330
FC
100
AcDbEntity
  8
0
 62
   151
100
AcDbFaceRecord
 10
0.0
 20
0.0
 30
0.0
 70
   128
 71
   348
 72
   351
 73
   262
 74
  -348
  0
VERTEX
  5
56B
330
FC
100
AcDbEntity
  8
0
 62
   151
100
AcDbFaceRecord
 10
0.0
 20
0.0
 30
0.0
 70
   128
 71
   332
 72
   342
 73
   349
 74
  -332
  0
VERTEX
  5
56C
330
FC
100
AcDbEntity
  8
0
 62
   151
100
AcDbFaceRecord
 10
0.0
 20
0.0
 30
0.0
 70
   128
 71
   332
 72
   334
 73
   342
 74
  -332
  0
VERTEX
  5
56D
330
FC
100
AcDbEntity
  8
0
 62
   151
100
AcDbFaceRecord
 10
0.0
 20
0.0
 30
0.0
 70
   128
 71
   333
 72
   349
 73
   350
 74
  -333
  0
VERTEX
  5
56E
330
FC
100
AcDbEntity
  8
0
 62
   151
100
AcDbFaceRecord
 10
0.0
 20
0.0
 30
0.0
 70
   128
 71
   333
 72
   332
 73
   349
 74
  -333
  0
VERTEX
  5
56F
330
FC
100
AcDbEntity
  8
0
 62
   151
100
AcDbFaceRecord
 10
0.0
 20
0.0
 30
0.0
 70
   128
 71
   331
 72
   350
 73
   351
 74
  -331
  0
VERTEX
  5
570
330
FC
100
AcDbEntity
  8
0
 62
   151
100
AcDbFaceRecord
 10
0.0
 20
0.0
 30
0.0
 70
   128
 71
   331
 72
   333
 73
   350
 74
  -331
  0
VERTEX
  5
571
330
FC
100
AcDbEntity
  8
0
 62
   151
100
AcDbFaceRecord
 10
0.0
 20
0.0
 30
0.0
 70
   128
 71
   330
 72
   351
 73
   348
 74
  -330
  0
VERTEX
  5
572
330
FC
100
AcDbEntity
  8
0
 62
   151
100
AcDbFaceRecord
 10
0.0
 20
0.0
 30
0.0
 70
   128
 71
   330
 72
   331
 73
   351
 74
  -330
  0
VERTEX
  5
573
330
FC
100
AcDbEntity
  8
0
 62
   151
100
AcDbFaceRecord
 10
0.0
 20
0.0
 30
0.0
 70
   128
 71
   328
 72
   330
 73
   348
 74
  -328
  0
VERTEX
  5
574
330
FC
100
AcDbEntity
  8
0
 62
   151
100
AcDbFaceRecord
 10
0.0
 20
0.0
 30
0.0
 70
   128
 71
   352
 72
   353
 73
   354
 74
  -352
  0
VERTEX
  5
575
330
FC
100
AcDbEntity
  8
0
 62
   151
100
AcDbFaceRecord
 10
0.0
 20
0.0
 30
0.0
 70
   128
 71
   355
 72
   354
 73
   353
 74
  -355
  0
VERTEX
  5
576
330
FC
100
AcDbEntity
  8
0
 62
   151
100
AcDbFaceRecord
 10
0.0
 20
0.0
 30
0.0
 70
   128
 71
   356
 72
   352
 73
   354
 74
  -356
  0
VERTEX
  5
577
330
FC
100
AcDbEntity
  8
0
 62
   151
100
AcDbFaceRecord
 10
0.0
 20
0.0
 30
0.0
 70
   128
 71
   357
 72
   356
 73
   354
 74
  -357
  0
VERTEX
  5
578
330
FC
100
AcDbEntity
  8
0
 62
   151
100
AcDbFaceRecord
 10
0.0
 20
0.0
 30
0.0
 70
   128
 71
   358
 72
   357
 73
   354
 74
  -358
  0
VERTEX
  5
579
330
FC
100
AcDbEntity
  8
0
 62
   151
100
AcDbFaceRecord
 10
0.0
 20
0.0
 30
0.0
 70
   128
 71
   358
 72
   354
 73
   355
 74
  -358
  0
VERTEX
  5
57A
330
FC
100
AcDbEntity
  8
0
 62
   151
100
AcDbFaceRecord
 10
0.0
 20
0.0
 30
0.0
 70
   128
 71
   359
 72
   360
 73
   353
 74
  -359
  0
VERTEX
  5
57B
330
FC
100
AcDbEntity
  8
0
 62
   151
100
AcDbFaceRecord
 10
0.0
 20
0.0
 30
0.0
 70
   128
 71
   361
 72
   353
 73
   360
 74
  -361
  0
VERTEX
  5
57C
330
FC
100
AcDbEntity
  8
0
 62
   151
100
AcDbFaceRecord
 10
0.0
 20
0.0
 30
0.0
 70
   128
 71
   352
 72
   359
 73
   353
 74
  -352
  0
VERTEX
  5
57D
330
FC
100
AcDbEntity
  8
0
 62
   151
100
AcDbFaceRecord
 10
0.0
 20
0.0
 30
0.0
 70
   128
 71
   355
 72
   353
 73
   361
 74
  -355
  0
VERTEX
  5
57E
330
FC
100
AcDbEntity
  8
0
 62
   151
100
AcDbFaceRecord
 10
0.0
 20
0.0
 30
0.0
 70
   128
 71
   359
 72
   362
 73
   360
 74
  -359
  0
VERTEX
  5
57F
330
FC
100
AcDbEntity
  8
0
 62
   151
100
AcDbFaceRecord
 10
0.0
 20
0.0
 30
0.0
 70
   128
 71
   363
 72
   360
 73
   362
 74
  -363
  0
VERTEX
  5
580
330
FC
100
AcDbEntity
  8
0
 62
   151
100
AcDbFaceRecord
 10
0.0
 20
0.0
 30
0.0
 70
   128
 71
   361
 72
   360
 73
   363
 74
  -361
  0
VERTEX
  5
581
330
FC
100
AcDbEntity
  8
0
 62
   151
100
AcDbFaceRecord
 10
0.0
 20
0.0
 30
0.0
 70
   128
 71
   364
 72
   362
 73
   359
 74
  -364
  0
VERTEX
  5
582
330
FC
100
AcDbEntity
  8
0
 62
   151
100
AcDbFaceRecord
 10
0.0
 20
0.0
 30
0.0
 70
   128
 71
   363
 72
   362
 73
   364
 74
  -363
  0
VERTEX
  5
583
330
FC
100
AcDbEntity
  8
0
 62
   151
100
AcDbFaceRecord
 10
0.0
 20
0.0
 30
0.0
 70
   128
 71
   365
 72
   359
 73
   352
 74
  -365
  0
VERTEX
  5
584
330
FC
100
AcDbEntity
  8
0
 62
   151
100
AcDbFaceRecord
 10
0.0
 20
0.0
 30
0.0
 70
   128
 71
   366
 72
   359
 73
   365
 74
  -366
  0
VERTEX
  5
585
330
FC
100
AcDbEntity
  8
0
 62
   151
100
AcDbFaceRecord
 10
0.0
 20
0.0
 30
0.0
 70
   128
 71
   364
 72
   359
 73
   366
 74
  -364
  0
VERTEX
  5
586
330
FC
100
AcDbEntity
  8
0
 62
   151
100
AcDbFaceRecord
 10
0.0
 20
0.0
 30
0.0
 70
   128
 71
   365
 72
   352
 73
   356
 74
  -365
  0
VERTEX
  5
587
330
FC
100
AcDbEntity
  8
0
 62
   151
100
AcDbFaceRecord
 10
0.0
 20
0.0
 30
0.0
 70
   128
 71
   357
 72
   367
 73
   356
 74
  -357
  0
VERTEX
  5
588
330
FC
100
AcDbEntity
  8
0
 62
   151
100
AcDbFaceRecord
 10
0.0
 20
0.0
 30
0.0
 70
   128
 71
   368
 72
   356
 73
   367
 74
  -368
  0
VERTEX
  5
589
330
FC
100
AcDbEntity
  8
0
 62
   151
100
AcDbFaceRecord
 10
0.0
 20
0.0
 30
0.0
 70
   128
 71
   365
 72
   356
 73
   368
 74
  -365
  0
VERTEX
  5
58A
330
FC
100
AcDbEntity
  8
0
 62
   151
100
AcDbFaceRecord
 10
0.0
 20
0.0
 30
0.0
 70
   128
 71
   369
 72
   370
 73
   367
 74
  -369
  0
VERTEX
  5
58B
330
FC
100
AcDbEntity
  8
0
 62
   151
100
AcDbFaceRecord
 10
0.0
 20
0.0
 30
0.0
 70
   128
 71
   371
 72
   367
 73
   370
 74
  -371
  0
VERTEX
  5
58C
330
FC
100
AcDbEntity
  8
0
 62
   151
100
AcDbFaceRecord
 10
0.0
 20
0.0
 30
0.0
 70
   128
 71
   357
 72
   369
 73
   367
 74
  -357
  0
VERTEX
  5
58D
330
FC
100
AcDbEntity
  8
0
 62
   151
100
AcDbFaceRecord
 10
0.0
 20
0.0
 30
0.0
 70
   128
 71
   371
 72
   368
 73
   367
 74
  -371
  0
VERTEX
  5
58E
330
FC
100
AcDbEntity
  8
0
 62
   151
100
AcDbFaceRecord
 10
0.0
 20
0.0
 30
0.0
 70
   128
 71
   369
 72
   372
 73
   370
 74
  -369
  0
VERTEX
  5
58F
330
FC
100
AcDbEntity
  8
0
 62
   151
100
AcDbFaceRecord
 10
0.0
 20
0.0
 30
0.0
 70
   128
 71
   373
 72
   370
 73
   372
 74
  -373
  0
VERTEX
  5
590
330
FC
100
AcDbEntity
  8
0
 62
   151
100
AcDbFaceRecord
 10
0.0
 20
0.0
 30
0.0
 70
   128
 71
   371
 72
   370
 73
   373
 74
  -371
  0
VERTEX
  5
591
330
FC
100
AcDbEntity
  8
0
 62
   151
100
AcDbFaceRecord
 10
0.0
 20
0.0
 30
0.0
 70
   128
 71
   374
 72
   372
 73
   369
 74
  -374
  0
VERTEX
  5
592
330
FC
100
AcDbEntity
  8
0
 62
   151
100
AcDbFaceRecord
 10
0.0
 20
0.0
 30
0.0
 70
   128
 71
   373
 72
   372
 73
   374
 74
  -373
  0
VERTEX
  5
593
330
FC
100
AcDbEntity
  8
0
 62
   151
100
AcDbFaceRecord
 10
0.0
 20
0.0
 30
0.0
 70
   128
 71
   358
 72
   369
 73
   357
 74
  -358
  0
VERTEX
  5
594
330
FC
100
AcDbEntity
  8
0
 62
   151
100
AcDbFaceRecord
 10
0.0
 20
0.0
 30
0.0
 70
   128
 71
   375
 72
   369
 73
   358
 74
  -375
  0
VERTEX
  5
595
330
FC
100
AcDbEntity
  8
0
 62
   151
100
AcDbFaceRecord
 10
0.0
 20
0.0
 30
0.0
 70
   128
 71
   374
 72
   369
 73
   375
 74
  -374
  0
VERTEX
  5
596
330
FC
100
AcDbEntity
  8
0
 62
   151
100
AcDbFaceRecord
 10
0.0
 20
0.0
 30
0.0
 70
   128
 71
   376
 72
   377
 73
   378
 74
  -376
  0
VERTEX
  5
597
330
FC
100
AcDbEntity
  8
0
 62
   151
100
AcDbFaceRecord
 10
0.0
 20
0.0
 30
0.0
 70
   128
 71
   379
 72
   378
 73
   377
 74
  -379
  0
VERTEX
  5
598
330
FC
100
AcDbEntity
  8
0
 62
   151
100
AcDbFaceRecord
 10
0.0
 20
0.0
 30
0.0
 70
   128
 71
   380
 72
   376
 73
   378
 74
  -380
  0
VERTEX
  5
599
330
FC
100
AcDbEntity
  8
0
 62
   151
100
AcDbFaceRecord
 10
0.0
 20
0.0
 30
0.0
 70
   128
 71
   381
 72
   380
 73
   378
 74
  -381
  0
VERTEX
  5
59A
330
FC
100
AcDbEntity
  8
0
 62
   151
100
AcDbFaceRecord
 10
0.0
 20
0.0
 30
0.0
 70
   128
 71
   382
 72
   381
 73
   378
 74
  -382
  0
VERTEX
  5
59B
330
FC
100
AcDbEntity
  8
0
 62
   151
100
AcDbFaceRecord
 10
0.0
 20
0.0
 30
0.0
 70
   128
 71
   382
 72
   378
 73
   379
 74
  -382
  0
VERTEX
  5
59C
330
FC
100
AcDbEntity
  8
0
 62
   151
100
AcDbFaceRecord
 10
0.0
 20
0.0
 30
0.0
 70
   128
 71
   383
 72
   384
 73
   377
 74
  -383
  0
VERTEX
  5
59D
330
FC
100
AcDbEntity
  8
0
 62
   151
100
AcDbFaceRecord
 10
0.0
 20
0.0
 30
0.0
 70
   128
 71
   385
 72
   377
 73
   384
 74
  -385
  0
VERTEX
  5
59E
330
FC
100
AcDbEntity
  8
0
 62
   151
100
AcDbFaceRecord
 10
0.0
 20
0.0
 30
0.0
 70
   128
 71
   376
 72
   383
 73
   377
 74
  -376
  0
VERTEX
  5
59F
330
FC
100
AcDbEntity
  8
0
 62
   151
100
AcDbFaceRecord
 10
0.0
 20
0.0
 30
0.0
 70
   128
 71
   379
 72
   377
 73
   385
 74
  -379
  0
VERTEX
  5
5A0
330
FC
100
AcDbEntity
  8
0
 62
   151
100
AcDbFaceRecord
 10
0.0
 20
0.0
 30
0.0
 70
   128
 71
   386
 72
   387
 73
   384
 74
  -386
  0
VERTEX
  5
5A1
330
FC
100
AcDbEntity
  8
0
 62
   151
100
AcDbFaceRecord
 10
0.0
 20
0.0
 30
0.0
 70
   128
 71
   388
 72
   384
 73
   387
 74
  -388
  0
VERTEX
  5
5A2
330
FC
100
AcDbEntity
  8
0
 62
   151
100
AcDbFaceRecord
 10
0.0
 20
0.0
 30
0.0
 70
   128
 71
   383
 72
   386
 73
   384
 74
  -383
  0
VERTEX
  5
5A3
330
FC
100
AcDbEntity
  8
0
 62
   151
100
AcDbFaceRecord
 10
0.0
 20
0.0
 30
0.0
 70
   128
 71
   385
 72
   384
 73
   388
 74
  -385
  0
VERTEX
  5
5A4
330
FC
100
AcDbEntity
  8
0
 62
   151
100
AcDbFaceRecord
 10
0.0
 20
0.0
 30
0.0
 70
   128
 71
   389
 72
   390
 73
   387
 74
  -389
  0
VERTEX
  5
5A5
330
FC
100
AcDbEntity
  8
0
 62
   151
100
AcDbFaceRecord
 10
0.0
 20
0.0
 30
0.0
 70
   128
 71
   391
 72
   387
 73
   390
 74
  -391
  0
VERTEX
  5
5A6
330
FC
100
AcDbEntity
  8
0
 62
   151
100
AcDbFaceRecord
 10
0.0
 20
0.0
 30
0.0
 70
   128
 71
   386
 72
   389
 73
   387
 74
  -386
  0
VERTEX
  5
5A7
330
FC
100
AcDbEntity
  8
0
 62
   151
100
AcDbFaceRecord
 10
0.0
 20
0.0
 30
0.0
 70
   128
 71
   388
 72
   387
 73
   391
 74
  -388
  0
VERTEX
  5
5A8
330
FC
100
AcDbEntity
  8
0
 62
   151
100
AcDbFaceRecord
 10
0.0
 20
0.0
 30
0.0
 70
   128
 71
   392
 72
   393
 73
   390
 74
  -392
  0
VERTEX
  5
5A9
330
FC
100
AcDbEntity
  8
0
 62
   151
100
AcDbFaceRecord
 10
0.0
 20
0.0
 30
0.0
 70
   128
 71
   394
 72
   390
 73
   393
 74
  -394
  0
VERTEX
  5
5AA
330
FC
100
AcDbEntity
  8
0
 62
   151
100
AcDbFaceRecord
 10
0.0
 20
0.0
 30
0.0
 70
   128
 71
   389
 72
   392
 73
   390
 74
  -389
  0
VERTEX
  5
5AB
330
FC
100
AcDbEntity
  8
0
 62
   151
100
AcDbFaceRecord
 10
0.0
 20
0.0
 30
0.0
 70
   128
 71
   391
 72
   390
 73
   394
 74
  -391
  0
VERTEX
  5
5AC
330
FC
100
AcDbEntity
  8
0
 62
   151
100
AcDbFaceRecord
 10
0.0
 20
0.0
 30
0.0
 70
   128
 71
   395
 72
   396
 73
   393
 74
  -395
  0
VERTEX
  5
5AD
330
FC
100
AcDbEntity
  8
0
 62
   151
100
AcDbFaceRecord
 10
0.0
 20
0.0
 30
0.0
 70
   128
 71
   397
 72
   393
 73
   396
 74
  -397
  0
VERTEX
  5
5AE
330
FC
100
AcDbEntity
  8
0
 62
   151
100
AcDbFaceRecord
 10
0.0
 20
0.0
 30
0.0
 70
   128
 71
   392
 72
   395
 73
   393
 74
  -392
  0
VERTEX
  5
5AF
330
FC
100
AcDbEntity
  8
0
 62
   151
100
AcDbFaceRecord
 10
0.0
 20
0.0
 30
0.0
 70
   128
 71
   394
 72
   393
 73
   397
 74
  -394
  0
VERTEX
  5
5B0
330
FC
100
AcDbEntity
  8
0
 62
   151
100
AcDbFaceRecord
 10
0.0
 20
0.0
 30
0.0
 70
   128
 71
   398
 72
   396
 73
   395
 74
  -398
  0
VERTEX
  5
5B1
330
FC
100
AcDbEntity
  8
0
 62
   151
100
AcDbFaceRecord
 10
0.0
 20
0.0
 30
0.0
 70
   128
 71
   398
 72
   399
 73
   396
 74
  -398
  0
VERTEX
  5
5B2
330
FC
100
AcDbEntity
  8
0
 62
   151
100
AcDbFaceRecord
 10
0.0
 20
0.0
 30
0.0
 70
   128
 71
   400
 72
   396
 73
   399
 74
  -400
  0
VERTEX
  5
5B3
330
FC
100
AcDbEntity
  8
0
 62
   151
100
AcDbFaceRecord
 10
0.0
 20
0.0
 30
0.0
 70
   128
 71
   397
 72
   396
 73
   400
 74
  -397
  0
VERTEX
  5
5B4
330
FC
100
AcDbEntity
  8
0
 62
   151
100
AcDbFaceRecord
 10
0.0
 20
0.0
 30
0.0
 70
   128
 71
   368
 72
   395
 73
   392
 74
  -368
  0
VERTEX
  5
5B5
330
FC
100
AcDbEntity
  8
0
 62
   151
100
AcDbFaceRecord
 10
0.0
 20
0.0
 30
0.0
 70
   128
 71
   371
 72
   398
 73
   395
 74
  -371
  0
VERTEX
  5
5B6
330
FC
100
AcDbEntity
  8
0
 62
   151
100
AcDbFaceRecord
 10
0.0
 20
0.0
 30
0.0
 70
   128
 71
   371
 72
   395
 73
   368
 74
  -371
  0
VERTEX
  5
5B7
330
FC
100
AcDbEntity
  8
0
 62
   151
100
AcDbFaceRecord
 10
0.0
 20
0.0
 30
0.0
 70
   128
 71
   365
 72
   392
 73
   389
 74
  -365
  0
VERTEX
  5
5B8
330
FC
100
AcDbEntity
  8
0
 62
   151
100
AcDbFaceRecord
 10
0.0
 20
0.0
 30
0.0
 70
   128
 71
   365
 72
   368
 73
   392
 74
  -365
  0
VERTEX
  5
5B9
330
FC
100
AcDbEntity
  8
0
 62
   151
100
AcDbFaceRecord
 10
0.0
 20
0.0
 30
0.0
 70
   128
 71
   366
 72
   389
 73
   386
 74
  -366
  0
VERTEX
  5
5BA
330
FC
100
AcDbEntity
  8
0
 62
   151
100
AcDbFaceRecord
 10
0.0
 20
0.0
 30
0.0
 70
   128
 71
   366
 72
   365
 73
   389
 74
  -366
  0
VERTEX
  5
5BB
330
FC
100
AcDbEntity
  8
0
 62
   151
100
AcDbFaceRecord
 10
0.0
 20
0.0
 30
0.0
 70
   128
 71
   364
 72
   386
 73
   383
 74
  -364
  0
VERTEX
  5
5BC
330
FC
100
AcDbEntity
  8
0
 62
   151
100
AcDbFaceRecord
 10
0.0
 20
0.0
 30
0.0
 70
   128
 71
   364
 72
   366
 73
   386
 74
  -364
  0
VERTEX
  5
5BD
330
FC
100
AcDbEntity
  8
0
 62
   151
100
AcDbFaceRecord
 10
0.0
 20
0.0
 30
0.0
 70
   128
 71
   363
 72
   383
 73
   376
 74
  -363
  0
VERTEX
  5
5BE
330
FC
100
AcDbEntity
  8
0
 62
   151
100
AcDbFaceRecord
 10
0.0
 20
0.0
 30
0.0
 70
   128
 71
   363
 72
   364
 73
   383
 74
  -363
  0
VERTEX
  5
5BF
330
FC
100
AcDbEntity
  8
0
 62
   151
100
AcDbFaceRecord
 10
0.0
 20
0.0
 30
0.0
 70
   128
 71
   361
 72
   376
 73
   380
 74
  -361
  0
VERTEX
  5
5C0
330
FC
100
AcDbEntity
  8
0
 62
   151
100
AcDbFaceRecord
 10
0.0
 20
0.0
 30
0.0
 70
   128
 71
   361
 72
   363
 73
   376
 74
  -361
  0
VERTEX
  5
5C1
330
FC
100
AcDbEntity
  8
0
 62
   151
100
AcDbFaceRecord
 10
0.0
 20
0.0
 30
0.0
 70
   128
 71
   401
 72
   380
 73
   381
 74
  -401
  0
VERTEX
  5
5C2
330
FC
100
AcDbEntity
  8
0
 62
   151
100
AcDbFaceRecord
 10
0.0
 20
0.0
 30
0.0
 70
   128
 71
   355
 72
   380
 73
   401
 74
  -355
  0
VERTEX
  5
5C3
330
FC
100
AcDbEntity
  8
0
 62
   151
100
AcDbFaceRecord
 10
0.0
 20
0.0
 30
0.0
 70
   128
 71
   355
 72
   361
 73
   380
 74
  -355
  0
VERTEX
  5
5C4
330
FC
100
AcDbEntity
  8
0
 62
   151
100
AcDbFaceRecord
 10
0.0
 20
0.0
 30
0.0
 70
   128
 71
   402
 72
   403
 73
   404
 74
  -402
  0
VERTEX
  5
5C5
330
FC
100
AcDbEntity
  8
0
 62
   151
100
AcDbFaceRecord
 10
0.0
 20
0.0
 30
0.0
 70
   128
 71
   405
 72
   404
 73
   403
 74
  -405
  0
VERTEX
  5
5C6
330
FC
100
AcDbEntity
  8
0
 62
   151
100
AcDbFaceRecord
 10
0.0
 20
0.0
 30
0.0
 70
   128
 71
   406
 72
   404
 73
   407
 74
  -406
  0
VERTEX
  5
5C7
330
FC
100
AcDbEntity
  8
0
 62
   151
100
AcDbFaceRecord
 10
0.0
 20
0.0
 30
0.0
 70
   128
 71
   408
 72
   407
 73
   404
 74
  -408
  0
VERTEX
  5
5C8
330
FC
100
AcDbEntity
  8
0
 62
   151
100
AcDbFaceRecord
 10
0.0
 20
0.0
 30
0.0
 70
   128
 71
   402
 72
   404
 73
   406
 74
  -402
  0
VERTEX
  5
5C9
330
FC
100
AcDbEntity
  8
0
 62
   151
100
AcDbFaceRecord
 10
0.0
 20
0.0
 30
0.0
 70
   128
 71
   408
 72
   404
 73
   405
 74
  -408
  0
VERTEX
  5
5CA
330
FC
100
AcDbEntity
  8
0
 62
   151
100
AcDbFaceRecord
 10
0.0
 20
0.0
 30
0.0
 70
   128
 71
   402
 72
   409
 73
   403
 74
  -402
  0
VERTEX
  5
5CB
330
FC
100
AcDbEntity
  8
0
 62
   151
100
AcDbFaceRecord
 10
0.0
 20
0.0
 30
0.0
 70
   128
 71
   410
 72
   403
 73
   409
 74
  -410
  0
VERTEX
  5
5CC
330
FC
100
AcDbEntity
  8
0
 62
   151
100
AcDbFaceRecord
 10
0.0
 20
0.0
 30
0.0
 70
   128
 71
   410
 72
   405
 73
   403
 74
  -410
  0
VERTEX
  5
5CD
330
FC
100
AcDbEntity
  8
0
 62
   151
100
AcDbFaceRecord
 10
0.0
 20
0.0
 30
0.0
 70
   128
 71
   402
 72
   411
 73
   409
 74
  -402
  0
VERTEX
  5
5CE
330
FC
100
AcDbEntity
  8
0
 62
   151
100
AcDbFaceRecord
 10
0.0
 20
0.0
 30
0.0
 70
   128
 71
   412
 72
   409
 73
   411
 74
  -412
  0
VERTEX
  5
5CF
330
FC
100
AcDbEntity
  8
0
 62
   151
100
AcDbFaceRecord
 10
0.0
 20
0.0
 30
0.0
 70
   128
 71
   412
 72
   410
 73
   409
 74
  -412
  0
VERTEX
  5
5D0
330
FC
100
AcDbEntity
  8
0
 62
   151
100
AcDbFaceRecord
 10
0.0
 20
0.0
 30
0.0
 70
   128
 71
   413
 72
   414
 73
   411
 74
  -413
  0
VERTEX
  5
5D1
330
FC
100
AcDbEntity
  8
0
 62
   151
100
AcDbFaceRecord
 10
0.0
 20
0.0
 30
0.0
 70
   128
 71
   415
 72
   411
 73
   414
 74
  -415
  0
VERTEX
  5
5D2
330
FC
100
AcDbEntity
  8
0
 62
   151
100
AcDbFaceRecord
 10
0.0
 20
0.0
 30
0.0
 70
   128
 71
   416
 72
   413
 73
   411
 74
  -416
  0
VERTEX
  5
5D3
330
FC
100
AcDbEntity
  8
0
 62
   151
100
AcDbFaceRecord
 10
0.0
 20
0.0
 30
0.0
 70
   128
 71
   402
 72
   416
 73
   411
 74
  -402
  0
VERTEX
  5
5D4
330
FC
100
AcDbEntity
  8
0
 62
   151
100
AcDbFaceRecord
 10
0.0
 20
0.0
 30
0.0
 70
   128
 71
   415
 72
   412
 73
   411
 74
  -415
  0
VERTEX
  5
5D5
330
FC
100
AcDbEntity
  8
0
 62
   151
100
AcDbFaceRecord
 10
0.0
 20
0.0
 30
0.0
 70
   128
 71
   413
 72
   417
 73
   414
 74
  -413
  0
VERTEX
  5
5D6
330
FC
100
AcDbEntity
  8
0
 62
   151
100
AcDbFaceRecord
 10
0.0
 20
0.0
 30
0.0
 70
   128
 71
   418
 72
   414
 73
   417
 74
  -418
  0
VERTEX
  5
5D7
330
FC
100
AcDbEntity
  8
0
 62
   151
100
AcDbFaceRecord
 10
0.0
 20
0.0
 30
0.0
 70
   128
 71
   418
 72
   415
 73
   414
 74
  -418
  0
VERTEX
  5
5D8
330
FC
100
AcDbEntity
  8
0
 62
   151
100
AcDbFaceRecord
 10
0.0
 20
0.0
 30
0.0
 70
   128
 71
   419
 72
   420
 73
   417
 74
  -419
  0
VERTEX
  5
5D9
330
FC
100
AcDbEntity
  8
0
 62
   151
100
AcDbFaceRecord
 10
0.0
 20
0.0
 30
0.0
 70
   128
 71
   421
 72
   417
 73
   420
 74
  -421
  0
VERTEX
  5
5DA
330
FC
100
AcDbEntity
  8
0
 62
   151
100
AcDbFaceRecord
 10
0.0
 20
0.0
 30
0.0
 70
   128
 71
   413
 72
   419
 73
   417
 74
  -413
  0
VERTEX
  5
5DB
330
FC
100
AcDbEntity
  8
0
 62
   151
100
AcDbFaceRecord
 10
0.0
 20
0.0
 30
0.0
 70
   128
 71
   421
 72
   418
 73
   417
 74
  -421
  0
VERTEX
  5
5DC
330
FC
100
AcDbEntity
  8
0
 62
   151
100
AcDbFaceRecord
 10
0.0
 20
0.0
 30
0.0
 70
   128
 71
   419
 72
   422
 73
   420
 74
  -419
  0
VERTEX
  5
5DD
330
FC
100
AcDbEntity
  8
0
 62
   151
100
AcDbFaceRecord
 10
0.0
 20
0.0
 30
0.0
 70
   128
 71
   423
 72
   420
 73
   422
 74
  -423
  0
VERTEX
  5
5DE
330
FC
100
AcDbEntity
  8
0
 62
   151
100
AcDbFaceRecord
 10
0.0
 20
0.0
 30
0.0
 70
   128
 71
   423
 72
   421
 73
   420
 74
  -423
  0
VERTEX
  5
5DF
330
FC
100
AcDbEntity
  8
0
 62
   151
100
AcDbFaceRecord
 10
0.0
 20
0.0
 30
0.0
 70
   128
 71
   419
 72
   424
 73
   422
 74
  -419
  0
VERTEX
  5
5E0
330
FC
100
AcDbEntity
  8
0
 62
   151
100
AcDbFaceRecord
 10
0.0
 20
0.0
 30
0.0
 70
   128
 71
   425
 72
   422
 73
   424
 74
  -425
  0
VERTEX
  5
5E1
330
FC
100
AcDbEntity
  8
0
 62
   151
100
AcDbFaceRecord
 10
0.0
 20
0.0
 30
0.0
 70
   128
 71
   423
 72
   422
 73
   425
 74
  -423
  0
VERTEX
  5
5E2
330
FC
100
AcDbEntity
  8
0
 62
   151
100
AcDbFaceRecord
 10
0.0
 20
0.0
 30
0.0
 70
   128
 71
   406
 72
   407
 73
   424
 74
  -406
  0
VERTEX
  5
5E3
330
FC
100
AcDbEntity
  8
0
 62
   151
100
AcDbFaceRecord
 10
0.0
 20
0.0
 30
0.0
 70
   128
 71
   426
 72
   424
 73
   407
 74
  -426
  0
VERTEX
  5
5E4
330
FC
100
AcDbEntity
  8
0
 62
   151
100
AcDbFaceRecord
 10
0.0
 20
0.0
 30
0.0
 70
   128
 71
   427
 72
   406
 73
   424
 74
  -427
  0
VERTEX
  5
5E5
330
FC
100
AcDbEntity
  8
0
 62
   151
100
AcDbFaceRecord
 10
0.0
 20
0.0
 30
0.0
 70
   128
 71
   419
 72
   427
 73
   424
 74
  -419
  0
VERTEX
  5
5E6
330
FC
100
AcDbEntity
  8
0
 62
   151
100
AcDbFaceRecord
 10
0.0
 20
0.0
 30
0.0
 70
   128
 71
   425
 72
   424
 73
   426
 74
  -425
  0
VERTEX
  5
5E7
330
FC
100
AcDbEntity
  8
0
 62
   151
100
AcDbFaceRecord
 10
0.0
 20
0.0
 30
0.0
 70
   128
 71
   426
 72
   407
 73
   408
 74
  -426
  0
VERTEX
  5
5E8
330
FC
100
AcDbEntity
  8
0
 62
   151
100
AcDbFaceRecord
 10
0.0
 20
0.0
 30
0.0
 70
   128
 71
   379
 72
   406
 73
   427
 74
  -379
  0
VERTEX
  5
5E9
330
FC
100
AcDbEntity
  8
0
 62
   151
100
AcDbFaceRecord
 10
0.0
 20
0.0
 30
0.0
 70
   128
 71
   385
 72
   402
 73
   406
 74
  -385
  0
VERTEX
  5
5EA
330
FC
100
AcDbEntity
  8
0
 62
   151
100
AcDbFaceRecord
 10
0.0
 20
0.0
 30
0.0
 70
   128
 71
   379
 72
   385
 73
   406
 74
  -379
  0
VERTEX
  5
5EB
330
FC
100
AcDbEntity
  8
0
 62
   151
100
AcDbFaceRecord
 10
0.0
 20
0.0
 30
0.0
 70
   128
 71
   428
 72
   429
 73
   427
 74
  -428
  0
VERTEX
  5
5EC
330
FC
100
AcDbEntity
  8
0
 62
   151
100
AcDbFaceRecord
 10
0.0
 20
0.0
 30
0.0
 70
   128
 71
   382
 72
   427
 73
   429
 74
  -382
  0
VERTEX
  5
5ED
330
FC
100
AcDbEntity
  8
0
 62
   151
100
AcDbFaceRecord
 10
0.0
 20
0.0
 30
0.0
 70
   128
 71
   419
 72
   428
 73
   427
 74
  -419
  0
VERTEX
  5
5EE
330
FC
100
AcDbEntity
  8
0
 62
   151
100
AcDbFaceRecord
 10
0.0
 20
0.0
 30
0.0
 70
   128
 71
   382
 72
   379
 73
   427
 74
  -382
  0
VERTEX
  5
5EF
330
FC
100
AcDbEntity
  8
0
 62
   151
100
AcDbFaceRecord
 10
0.0
 20
0.0
 30
0.0
 70
   128
 71
   428
 72
   430
 73
   429
 74
  -428
  0
VERTEX
  5
5F0
330
FC
100
AcDbEntity
  8
0
 62
   151
100
AcDbFaceRecord
 10
0.0
 20
0.0
 30
0.0
 70
   128
 71
   431
 72
   429
 73
   430
 74
  -431
  0
VERTEX
  5
5F1
330
FC
100
AcDbEntity
  8
0
 62
   151
100
AcDbFaceRecord
 10
0.0
 20
0.0
 30
0.0
 70
   128
 71
   431
 72
   382
 73
   429
 74
  -431
  0
VERTEX
  5
5F2
330
FC
100
AcDbEntity
  8
0
 62
   151
100
AcDbFaceRecord
 10
0.0
 20
0.0
 30
0.0
 70
   128
 71
   432
 72
   430
 73
   428
 74
  -432
  0
VERTEX
  5
5F3
330
FC
100
AcDbEntity
  8
0
 62
   151
100
AcDbFaceRecord
 10
0.0
 20
0.0
 30
0.0
 70
   128
 71
   432
 72
   431
 73
   430
 74
  -432
  0
VERTEX
  5
5F4
330
FC
100
AcDbEntity
  8
0
 62
   151
100
AcDbFaceRecord
 10
0.0
 20
0.0
 30
0.0
 70
   128
 71
   433
 72
   428
 73
   419
 74
  -433
  0
VERTEX
  5
5F5
330
FC
100
AcDbEntity
  8
0
 62
   151
100
AcDbFaceRecord
 10
0.0
 20
0.0
 30
0.0
 70
   128
 71
   434
 72
   432
 73
   428
 74
  -434
  0
VERTEX
  5
5F6
330
FC
100
AcDbEntity
  8
0
 62
   151
100
AcDbFaceRecord
 10
0.0
 20
0.0
 30
0.0
 70
   128
 71
   433
 72
   434
 73
   428
 74
  -433
  0
VERTEX
  5
5F7
330
FC
100
AcDbEntity
  8
0
 62
   151
100
AcDbFaceRecord
 10
0.0
 20
0.0
 30
0.0
 70
   128
 71
   433
 72
   419
 73
   413
 74
  -433
  0
VERTEX
  5
5F8
330
FC
100
AcDbEntity
  8
0
 62
   151
100
AcDbFaceRecord
 10
0.0
 20
0.0
 30
0.0
 70
   128
 71
   400
 72
   413
 73
   416
 74
  -400
  0
VERTEX
  5
5F9
330
FC
100
AcDbEntity
  8
0
 62
   151
100
AcDbFaceRecord
 10
0.0
 20
0.0
 30
0.0
 70
   128
 71
   433
 72
   413
 73
   400
 74
  -433
  0
VERTEX
  5
5FA
330
FC
100
AcDbEntity
  8
0
 62
   151
100
AcDbFaceRecord
 10
0.0
 20
0.0
 30
0.0
 70
   128
 71
   435
 72
   436
 73
   416
 74
  -435
  0
VERTEX
  5
5FB
330
FC
100
AcDbEntity
  8
0
 62
   151
100
AcDbFaceRecord
 10
0.0
 20
0.0
 30
0.0
 70
   128
 71
   397
 72
   416
 73
   436
 74
  -397
  0
VERTEX
  5
5FC
330
FC
100
AcDbEntity
  8
0
 62
   151
100
AcDbFaceRecord
 10
0.0
 20
0.0
 30
0.0
 70
   128
 71
   402
 72
   435
 73
   416
 74
  -402
  0
VERTEX
  5
5FD
330
FC
100
AcDbEntity
  8
0
 62
   151
100
AcDbFaceRecord
 10
0.0
 20
0.0
 30
0.0
 70
   128
 71
   397
 72
   400
 73
   416
 74
  -397
  0
VERTEX
  5
5FE
330
FC
100
AcDbEntity
  8
0
 62
   151
100
AcDbFaceRecord
 10
0.0
 20
0.0
 30
0.0
 70
   128
 71
   435
 72
   437
 73
   436
 74
  -435
  0
VERTEX
  5
5FF
330
FC
100
AcDbEntity
  8
0
 62
   151
100
AcDbFaceRecord
 10
0.0
 20
0.0
 30
0.0
 70
   128
 71
   394
 72
   436
 73
   437
 74
  -394
  0
VERTEX
  5
600
330
FC
100
AcDbEntity
  8
0
 62
   151
100
AcDbFaceRecord
 10
0.0
 20
0.0
 30
0.0
 70
   128
 71
   394
 72
   397
 73
   436
 74
  -394
  0
VERTEX
  5
601
330
FC
100
AcDbEntity
  8
0
 62
   151
100
AcDbFaceRecord
 10
0.0
 20
0.0
 30
0.0
 70
   128
 71
   391
 72
   437
 73
   435
 74
  -391
  0
VERTEX
  5
602
330
FC
100
AcDbEntity
  8
0
 62
   151
100
AcDbFaceRecord
 10
0.0
 20
0.0
 30
0.0
 70
   128
 71
   391
 72
   394
 73
   437
 74
  -391
  0
VERTEX
  5
603
330
FC
100
AcDbEntity
  8
0
 62
   151
100
AcDbFaceRecord
 10
0.0
 20
0.0
 30
0.0
 70
   128
 71
   385
 72
   435
 73
   402
 74
  -385
  0
VERTEX
  5
604
330
FC
100
AcDbEntity
  8
0
 62
   151
100
AcDbFaceRecord
 10
0.0
 20
0.0
 30
0.0
 70
   128
 71
   388
 72
   391
 73
   435
 74
  -388
  0
VERTEX
  5
605
330
FC
100
AcDbEntity
  8
0
 62
   151
100
AcDbFaceRecord
 10
0.0
 20
0.0
 30
0.0
 70
   128
 71
   385
 72
   388
 73
   435
 74
  -385
  0
VERTEX
  5
606
330
FC
100
AcDbEntity
  8
0
 62
   151
100
AcDbFaceRecord
 10
0.0
 20
0.0
 30
0.0
 70
   128
 71
   438
 72
   405
 73
   410
 74
  -438
  0
VERTEX
  5
607
330
FC
100
AcDbEntity
  8
0
 62
   151
100
AcDbFaceRecord
 10
0.0
 20
0.0
 30
0.0
 70
   128
 71
   439
 72
   405
 73
   438
 74
  -439
  0
VERTEX
  5
608
330
FC
100
AcDbEntity
  8
0
 62
   151
100
AcDbFaceRecord
 10
0.0
 20
0.0
 30
0.0
 70
   128
 71
   408
 72
   405
 73
   439
 74
  -408
  0
VERTEX
  5
609
330
FC
100
AcDbEntity
  8
0
 62
   151
100
AcDbFaceRecord
 10
0.0
 20
0.0
 30
0.0
 70
   128
 71
   440
 72
   410
 73
   412
 74
  -440
  0
VERTEX
  5
60A
330
FC
100
AcDbEntity
  8
0
 62
   151
100
AcDbFaceRecord
 10
0.0
 20
0.0
 30
0.0
 70
   128
 71
   440
 72
   438
 73
   410
 74
  -440
  0
VERTEX
  5
60B
330
FC
100
AcDbEntity
  8
0
 62
   151
100
AcDbFaceRecord
 10
0.0
 20
0.0
 30
0.0
 70
   128
 71
   441
 72
   412
 73
   415
 74
  -441
  0
VERTEX
  5
60C
330
FC
100
AcDbEntity
  8
0
 62
   151
100
AcDbFaceRecord
 10
0.0
 20
0.0
 30
0.0
 70
   128
 71
   442
 72
   440
 73
   412
 74
  -442
  0
VERTEX
  5
60D
330
FC
100
AcDbEntity
  8
0
 62
   151
100
AcDbFaceRecord
 10
0.0
 20
0.0
 30
0.0
 70
   128
 71
   441
 72
   442
 73
   412
 74
  -441
  0
VERTEX
  5
60E
330
FC
100
AcDbEntity
  8
0
 62
   151
100
AcDbFaceRecord
 10
0.0
 20
0.0
 30
0.0
 70
   128
 71
   443
 72
   415
 73
   418
 74
  -443
  0
VERTEX
  5
60F
330
FC
100
AcDbEntity
  8
0
 62
   151
100
AcDbFaceRecord
 10
0.0
 20
0.0
 30
0.0
 70
   128
 71
   443
 72
   441
 73
   415
 74
  -443
  0
VERTEX
  5
610
330
FC
100
AcDbEntity
  8
0
 62
   151
100
AcDbFaceRecord
 10
0.0
 20
0.0
 30
0.0
 70
   128
 71
   443
 72
   418
 73
   421
 74
  -443
  0
VERTEX
  5
611
330
FC
100
AcDbEntity
  8
0
 62
   151
100
AcDbFaceRecord
 10
0.0
 20
0.0
 30
0.0
 70
   128
 71
   444
 72
   443
 73
   421
 74
  -444
  0
VERTEX
  5
612
330
FC
100
AcDbEntity
  8
0
 62
   151
100
AcDbFaceRecord
 10
0.0
 20
0.0
 30
0.0
 70
   128
 71
   423
 72
   444
 73
   421
 74
  -423
  0
VERTEX
  5
613
330
FC
100
AcDbEntity
  8
0
 62
   151
100
AcDbFaceRecord
 10
0.0
 20
0.0
 30
0.0
 70
   128
 71
   241
 72
   438
 73
   440
 74
  -241
  0
VERTEX
  5
614
330
FC
100
AcDbEntity
  8
0
 62
   151
100
AcDbFaceRecord
 10
0.0
 20
0.0
 30
0.0
 70
   128
 71
   243
 72
   439
 73
   438
 74
  -243
  0
VERTEX
  5
615
330
FC
100
AcDbEntity
  8
0
 62
   151
100
AcDbFaceRecord
 10
0.0
 20
0.0
 30
0.0
 70
   128
 71
   243
 72
   438
 73
   241
 74
  -243
  0
VERTEX
  5
616
330
FC
100
AcDbEntity
  8
0
 62
   151
100
AcDbFaceRecord
 10
0.0
 20
0.0
 30
0.0
 70
   128
 71
   242
 72
   440
 73
   442
 74
  -242
  0
VERTEX
  5
617
330
FC
100
AcDbEntity
  8
0
 62
   151
100
AcDbFaceRecord
 10
0.0
 20
0.0
 30
0.0
 70
   128
 71
   242
 72
   241
 73
   440
 74
  -242
  0
VERTEX
  5
618
330
FC
100
AcDbEntity
  8
0
 62
   151
100
AcDbFaceRecord
 10
0.0
 20
0.0
 30
0.0
 70
   128
 71
   256
 72
   442
 73
   441
 74
  -256
  0
VERTEX
  5
619
330
FC
100
AcDbEntity
  8
0
 62
   151
100
AcDbFaceRecord
 10
0.0
 20
0.0
 30
0.0
 70
   128
 71
   256
 72
   242
 73
   442
 74
  -256
  0
VERTEX
  5
61A
330
FC
100
AcDbEntity
  8
0
 62
   151
100
AcDbFaceRecord
 10
0.0
 20
0.0
 30
0.0
 70
   128
 71
   257
 72
   441
 73
   443
 74
  -257
  0
VERTEX
  5
61B
330
FC
100
AcDbEntity
  8
0
 62
   151
100
AcDbFaceRecord
 10
0.0
 20
0.0
 30
0.0
 70
   128
 71
   257
 72
   256
 73
   441
 74
  -257
  0
VERTEX
  5
61C
330
FC
100
AcDbEntity
  8
0
 62
   151
100
AcDbFaceRecord
 10
0.0
 20
0.0
 30
0.0
 70
   128
 71
   255
 72
   443
 73
   444
 74
  -255
  0
VERTEX
  5
61D
330
FC
100
AcDbEntity
  8
0
 62
   151
100
AcDbFaceRecord
 10
0.0
 20
0.0
 30
0.0
 70
   128
 71
   255
 72
   257
 73
   443
 74
  -255
  0
VERTEX
  5
61E
330
FC
100
AcDbEntity
  8
0
 62
   151
100
AcDbFaceRecord
 10
0.0
 20
0.0
 30
0.0
 70
   128
 71
   423
 72
   445
 73
   444
 74
  -423
  0
VERTEX
  5
61F
330
FC
100
AcDbEntity
  8
0
 62
   151
100
AcDbFaceRecord
 10
0.0
 20
0.0
 30
0.0
 70
   128
 71
   219
 72
   444
 73
   445
 74
  -219
  0
VERTEX
  5
620
330
FC
100
AcDbEntity
  8
0
 62
   151
100
AcDbFaceRecord
 10
0.0
 20
0.0
 30
0.0
 70
   128
 71
   219
 72
   255
 73
   444
 74
  -219
  0
VERTEX
  5
621
330
FC
100
AcDbEntity
  8
0
 62
   151
100
AcDbFaceRecord
 10
0.0
 20
0.0
 30
0.0
 70
   128
 71
   425
 72
   446
 73
   445
 74
  -425
  0
VERTEX
  5
622
330
FC
100
AcDbEntity
  8
0
 62
   151
100
AcDbFaceRecord
 10
0.0
 20
0.0
 30
0.0
 70
   128
 71
   217
 72
   445
 73
   446
 74
  -217
  0
VERTEX
  5
623
330
FC
100
AcDbEntity
  8
0
 62
   151
100
AcDbFaceRecord
 10
0.0
 20
0.0
 30
0.0
 70
   128
 71
   423
 72
   425
 73
   445
 74
  -423
  0
VERTEX
  5
624
330
FC
100
AcDbEntity
  8
0
 62
   151
100
AcDbFaceRecord
 10
0.0
 20
0.0
 30
0.0
 70
   128
 71
   217
 72
   219
 73
   445
 74
  -217
  0
VERTEX
  5
625
330
FC
100
AcDbEntity
  8
0
 62
   151
100
AcDbFaceRecord
 10
0.0
 20
0.0
 30
0.0
 70
   128
 71
   425
 72
   447
 73
   446
 74
  -425
  0
VERTEX
  5
626
330
FC
100
AcDbEntity
  8
0
 62
   151
100
AcDbFaceRecord
 10
0.0
 20
0.0
 30
0.0
 70
   128
 71
   244
 72
   446
 73
   447
 74
  -244
  0
VERTEX
  5
627
330
FC
100
AcDbEntity
  8
0
 62
   151
100
AcDbFaceRecord
 10
0.0
 20
0.0
 30
0.0
 70
   128
 71
   217
 72
   446
 73
   244
 74
  -217
  0
VERTEX
  5
628
330
FC
100
AcDbEntity
  8
0
 62
   151
100
AcDbFaceRecord
 10
0.0
 20
0.0
 30
0.0
 70
   128
 71
   426
 72
   439
 73
   447
 74
  -426
  0
VERTEX
  5
629
330
FC
100
AcDbEntity
  8
0
 62
   151
100
AcDbFaceRecord
 10
0.0
 20
0.0
 30
0.0
 70
   128
 71
   245
 72
   447
 73
   439
 74
  -245
  0
VERTEX
  5
62A
330
FC
100
AcDbEntity
  8
0
 62
   151
100
AcDbFaceRecord
 10
0.0
 20
0.0
 30
0.0
 70
   128
 71
   425
 72
   426
 73
   447
 74
  -425
  0
VERTEX
  5
62B
330
FC
100
AcDbEntity
  8
0
 62
   151
100
AcDbFaceRecord
 10
0.0
 20
0.0
 30
0.0
 70
   128
 71
   244
 72
   447
 73
   245
 74
  -244
  0
VERTEX
  5
62C
330
FC
100
AcDbEntity
  8
0
 62
   151
100
AcDbFaceRecord
 10
0.0
 20
0.0
 30
0.0
 70
   128
 71
   426
 72
   408
 73
   439
 74
  -426
  0
VERTEX
  5
62D
330
FC
100
AcDbEntity
  8
0
 62
   151
100
AcDbFaceRecord
 10
0.0
 20
0.0
 30
0.0
 70
   128
 71
   245
 72
   439
 73
   243
 74
  -245
  0
VERTEX
  5
62E
330
FC
100
AcDbEntity
  8
0
 62
   151
100
AcDbFaceRecord
 10
0.0
 20
0.0
 30
0.0
 70
   128
 71
   448
 72
   449
 73
   399
 74
  -448
  0
VERTEX
  5
62F
330
FC
100
AcDbEntity
  8
0
 62
   151
100
AcDbFaceRecord
 10
0.0
 20
0.0
 30
0.0
 70
   128
 71
   433
 72
   399
 73
   449
 74
  -433
  0
VERTEX
  5
630
330
FC
100
AcDbEntity
  8
0
 62
   151
100
AcDbFaceRecord
 10
0.0
 20
0.0
 30
0.0
 70
   128
 71
   398
 72
   448
 73
   399
 74
  -398
  0
VERTEX
  5
631
330
FC
100
AcDbEntity
  8
0
 62
   151
100
AcDbFaceRecord
 10
0.0
 20
0.0
 30
0.0
 70
   128
 71
   433
 72
   400
 73
   399
 74
  -433
  0
VERTEX
  5
632
330
FC
100
AcDbEntity
  8
0
 62
   151
100
AcDbFaceRecord
 10
0.0
 20
0.0
 30
0.0
 70
   128
 71
   450
 72
   451
 73
   449
 74
  -450
  0
VERTEX
  5
633
330
FC
100
AcDbEntity
  8
0
 62
   151
100
AcDbFaceRecord
 10
0.0
 20
0.0
 30
0.0
 70
   128
 71
   434
 72
   449
 73
   451
 74
  -434
  0
VERTEX
  5
634
330
FC
100
AcDbEntity
  8
0
 62
   151
100
AcDbFaceRecord
 10
0.0
 20
0.0
 30
0.0
 70
   128
 71
   448
 72
   450
 73
   449
 74
  -448
  0
VERTEX
  5
635
330
FC
100
AcDbEntity
  8
0
 62
   151
100
AcDbFaceRecord
 10
0.0
 20
0.0
 30
0.0
 70
   128
 71
   433
 72
   449
 73
   434
 74
  -433
  0
VERTEX
  5
636
330
FC
100
AcDbEntity
  8
0
 62
   151
100
AcDbFaceRecord
 10
0.0
 20
0.0
 30
0.0
 70
   128
 71
   452
 72
   453
 73
   451
 74
  -452
  0
VERTEX
  5
637
330
FC
100
AcDbEntity
  8
0
 62
   151
100
AcDbFaceRecord
 10
0.0
 20
0.0
 30
0.0
 70
   128
 71
   432
 72
   451
 73
   453
 74
  -432
  0
VERTEX
  5
638
330
FC
100
AcDbEntity
  8
0
 62
   151
100
AcDbFaceRecord
 10
0.0
 20
0.0
 30
0.0
 70
   128
 71
   450
 72
   452
 73
   451
 74
  -450
  0
VERTEX
  5
639
330
FC
100
AcDbEntity
  8
0
 62
   151
100
AcDbFaceRecord
 10
0.0
 20
0.0
 30
0.0
 70
   128
 71
   434
 72
   451
 73
   432
 74
  -434
  0
VERTEX
  5
63A
330
FC
100
AcDbEntity
  8
0
 62
   151
100
AcDbFaceRecord
 10
0.0
 20
0.0
 30
0.0
 70
   128
 71
   401
 72
   381
 73
   453
 74
  -401
  0
VERTEX
  5
63B
330
FC
100
AcDbEntity
  8
0
 62
   151
100
AcDbFaceRecord
 10
0.0
 20
0.0
 30
0.0
 70
   128
 71
   431
 72
   453
 73
   381
 74
  -431
  0
VERTEX
  5
63C
330
FC
100
AcDbEntity
  8
0
 62
   151
100
AcDbFaceRecord
 10
0.0
 20
0.0
 30
0.0
 70
   128
 71
   452
 72
   401
 73
   453
 74
  -452
  0
VERTEX
  5
63D
330
FC
100
AcDbEntity
  8
0
 62
   151
100
AcDbFaceRecord
 10
0.0
 20
0.0
 30
0.0
 70
   128
 71
   432
 72
   453
 73
   431
 74
  -432
  0
VERTEX
  5
63E
330
FC
100
AcDbEntity
  8
0
 62
   151
100
AcDbFaceRecord
 10
0.0
 20
0.0
 30
0.0
 70
   128
 71
   431
 72
   381
 73
   382
 74
  -431
  0
VERTEX
  5
63F
330
FC
100
AcDbEntity
  8
0
 62
   151
100
AcDbFaceRecord
 10
0.0
 20
0.0
 30
0.0
 70
   128
 71
   358
 72
   401
 73
   452
 74
  -358
  0
VERTEX
  5
640
330
FC
100
AcDbEntity
  8
0
 62
   151
100
AcDbFaceRecord
 10
0.0
 20
0.0
 30
0.0
 70
   128
 71
   358
 72
   355
 73
   401
 74
  -358
  0
VERTEX
  5
641
330
FC
100
AcDbEntity
  8
0
 62
   151
100
AcDbFaceRecord
 10
0.0
 20
0.0
 30
0.0
 70
   128
 71
   375
 72
   452
 73
   450
 74
  -375
  0
VERTEX
  5
642
330
FC
100
AcDbEntity
  8
0
 62
   151
100
AcDbFaceRecord
 10
0.0
 20
0.0
 30
0.0
 70
   128
 71
   375
 72
   358
 73
   452
 74
  -375
  0
VERTEX
  5
643
330
FC
100
AcDbEntity
  8
0
 62
   151
100
AcDbFaceRecord
 10
0.0
 20
0.0
 30
0.0
 70
   128
 71
   374
 72
   450
 73
   448
 74
  -374
  0
VERTEX
  5
644
330
FC
100
AcDbEntity
  8
0
 62
   151
100
AcDbFaceRecord
 10
0.0
 20
0.0
 30
0.0
 70
   128
 71
   374
 72
   375
 73
   450
 74
  -374
  0
VERTEX
  5
645
330
FC
100
AcDbEntity
  8
0
 62
   151
100
AcDbFaceRecord
 10
0.0
 20
0.0
 30
0.0
 70
   128
 71
   373
 72
   448
 73
   398
 74
  -373
  0
VERTEX
  5
646
330
FC
100
AcDbEntity
  8
0
 62
   151
100
AcDbFaceRecord
 10
0.0
 20
0.0
 30
0.0
 70
   128
 71
   373
 72
   374
 73
   448
 74
  -373
  0
VERTEX
  5
647
330
FC
100
AcDbEntity
  8
0
 62
   151
100
AcDbFaceRecord
 10
0.0
 20
0.0
 30
0.0
 70
   128
 71
   371
 72
   373
 73
   398
 74
  -371
  0
SEQEND
  5
648
330
FC
100
AcDbEntity
  8
0
 62
   151
  0
ENDSEC
  0
SECTION
  2
OBJECTS
  0
DICTIONARY
  5
C
330
0
100
AcDbDictionary
281
     1
  3
ACAD_COLOR
350
D4
  3
ACAD_GROUP
350
D
  3
ACAD_LAYOUT
350
1A
  3
ACAD_MATERIAL
350
AA
  3
ACAD_MLEADERSTYLE
350
F9
  3
ACAD_MLINESTYLE
350
17
  3
ACAD_PLOTSETTINGS
350
19
  3
ACAD_PLOTSTYLENAME
350
E
  3
ACAD_SCALELIST
350
D7
  3
ACAD_TABLESTYLE
350
D5
  3
ACAD_VISUALSTYLE
350
C3
  3
ACDB_RECOMPOSE_DATA
350
652
  3
AcDbVariableDictionary
350
649
  0
DICTIONARY
  5
D4
102
{ACAD_REACTORS
330
C
102
}
330
C
100
AcDbDictionary
281
     1
  0
DICTIONARY
  5
D
102
{ACAD_REACTORS
330
C
102
}
330
C
100
AcDbDictionary
281
     1
  0
DICTIONARY
  5
1A
102
{ACAD_REACTORS
330
C
102
}
330
C
100
AcDbDictionary
281
     1
  3
Layout1
350
1E
  3
Layout2
350
26
  3
Model
350
22
  0
DICTIONARY
  5
AA
102
{ACAD_REACTORS
330
C
102
}
330
C
100
AcDbDictionary
281
     1
  3
ByBlock
350
B3
  3
ByLayer
350
AB
  3
Global
350
BB
  0
DICTIONARY
  5
F9
102
{ACAD_REACTORS
330
C
102
}
330
C
100
AcDbDictionary
281
     1
  3
Standard
350
FA
  0
DICTIONARY
  5
17
102
{ACAD_REACTORS
330
C
102
}
330
C
100
AcDbDictionary
281
     1
  3
Standard
350
18
  0
DICTIONARY
  5
19
102
{ACAD_REACTORS
330
C
102
}
330
C
100
AcDbDictionary
281
     1
  0
ACDBDICTIONARYWDFLT
  5
E
102
{ACAD_REACTORS
330
C
102
}
330
C
100
AcDbDictionary
281
     1
  3
ByLayer
350
2D
  3
Normal
350
F
100
AcDbDictionaryWithDefault
340
F
  0
DICTIONARY
  5
D7
102
{ACAD_REACTORS
330
C
102
}
330
C
100
AcDbDictionary
281
     1
  3
A0
350
D8
  3
A1
350
D9
  3
A2
350
DA
  3
A3
350
DB
  3
A4
350
DC
  3
A5
350
DD
  3
A6
350
DE
  3
A7
350
DF
  3
A8
350
E0
  3
A9
350
E1
  3
B0
350
E2
  3
B1
350
E3
  3
B2
350
E4
  3
B3
350
E5
  3
B4
350
E6
  3
B5
350
E7
  3
B6
350
E8
  3
B7
350
E9
  3
B8
350
EA
  3
B9
350
EB
  3
C0
350
EC
  3
C1
350
ED
  3
C2
350
EE
  3
C3
350
EF
  3
C4
350
F0
  3
C5
350
F1
  3
C6
350
F2
  3
C7
350
F3
  3
C8
350
F4
  3
C9
350
F5
  3
D0
350
F6
  3
D1
350
F7
  3
D2
350
F8
  0
DICTIONARY
  5
D5
102
{ACAD_REACTORS
330
C
102
}
330
C
100
AcDbDictionary
281
     1
  3
Standard
350
D6
  0
DICTIONARY
  5
C3
102
{ACAD_REACTORS
330
C
102
}
330
C
100
AcDbDictionary
281
     1
  3
2dWireframe
350
C9
  3
3D Hidden
350
CB
  3
3dWireframe
350
CA
  3
Basic
350
C8
  3
Brighten
350
CF
  3
ColorChange
350
D3
  3
Conceptual
350
CC
  3
Dim
350
CE
  3
Facepattern
350
D2
  3
Flat
350
C4
  3
FlatWithEdges
350
C5
  3
Gouraud
350
C6
  3
GouraudWithEdges
350
C7
  3
Linepattern
350
D1
  3
Realistic
350
CD
  3
Thicken
350
D0
  0
XRECORD
  5
652
102
{ACAD_REACTORS
330
C
102
}
330
C
100
AcDbXrecord
280
     1
 90
        1
330
D6
  0
DICTIONARY
  5
649
102
{ACAD_REACTORS
330
C
102
}
330
C
100
AcDbDictionary
281
     1
  3
CANNOSCALE
350
64C
  3
CMLEADERSTYLE
350
64B
  3
CTABLESTYLE
350
64A
  3
DIMASSOC
350
64F
  3
INDEXCTL
350
64E
  3
SORTENTS
350
64D
  0
LAYOUT
  5
1E
102
{ACAD_XDICTIONARY
360
653
102
}
102
{ACAD_REACTORS
330
1A
102
}
330
1A
100
AcDbPlotSettings
  1

  2
\\KTXNTBDC\CASF2PN1
  4

  6

 40
0.0
 41
0.0
 42
0.0
 43
0.0
 44
0.0
 45
0.0
 46
0.0
 47
0.0
 48
0.0
 49
0.0
140
0.0
141
0.0
142
1.0
143
1.0
 70
   688
 72
     0
 73
     0
 74
     5
  7

 75
    16
147
1.0
148
0.0
149
0.0
100
AcDbLayout
  1
Layout1
 70
     1
 71
     1
 10
0.0
 20
0.0
 11
12.0
 21
9.0
 12
0.0
 22
0.0
 32
0.0
 14
1.000000000000000E+20
 24
1.000000000000000E+20
 34
1.000000000000000E+20
 15
-1.000000000000000E+20
 25
-1.000000000000000E+20
 35
-1.000000000000000E+20
146
0.0
 13
0.0
 23
0.0
 33
0.0
 16
1.0
 26
0.0
 36
0.0
 17
0.0
 27
1.0
 37
0.0
 76
     0
330
1B
  0
LAYOUT
  5
26
102
{ACAD_XDICTIONARY
360
657
102
}
102
{ACAD_REACTORS
330
1A
102
}
330
1A
100
AcDbPlotSettings
  1

  2
\\KTXNTBDC\CASF2PN1
  4

  6

 40
0.0
 41
0.0
 42
0.0
 43
0.0
 44
0.0
 45
0.0
 46
0.0
 47
0.0
 48
0.0
 49
0.0
140
0.0
141
0.0
142
1.0
143
1.0
 70
   688
 72
     0
 73
     0
 74
     5
  7

 75
    16
147
1.0
148
0.0
149
0.0
100
AcDbLayout
  1
Layout2
 70
     1
 71
     2
 10
0.0
 20
0.0
 11
12.0
 21
9.0
 12
0.0
 22
0.0
 32
0.0
 14
0.0
 24
0.0
 34
0.0
 15
0.0
 25
0.0
 35
0.0
146
0.0
 13
0.0
 23
0.0
 33
0.0
 16
1.0
 26
0.0
 36
0.0
 17
0.0
 27
1.0
 37
0.0
 76
     0
330
23
  0
LAYOUT
  5
22
102
{ACAD_XDICTIONARY
360
655
102
}
102
{ACAD_REACTORS
330
1A
102
}
330
1A
100
AcDbPlotSettings
  1

  2
\\KTXNTBDC\CASF2PN1
  4

  6

 40
0.0
 41
0.0
 42
0.0
 43
0.0
 44
0.0
 45
0.0
 46
0.0
 47
0.0
 48
0.0
 49
0.0
140
0.0
141
0.0
142
1.0
143
1.0
 70
  1712
 72
     0
 73
     0
 74
     0
  7

 75
     0
147
1.0
148
0.0
149
0.0
100
AcDbLayout
  1
Model
 70
     1
 71
     0
 10
0.0
 20
0.0
 11
12.0
 21
9.0
 12
0.0
 22
0.0
 32
0.0
 14
0.0
 24
0.0
 34
0.0
 15
0.0
 25
0.0
 35
0.0
146
0.0
 13
0.0
 23
0.0
 33
0.0
 16
1.0
 26
0.0
 36
0.0
 17
0.0
 27
1.0
 37
0.0
 76
     0
330
1F
  0
MATERIAL
  5
B3
102
{ACAD_XDICTIONARY
360
B4
102
}
102
{ACAD_REACTORS
330
AA
102
}
330
AA
100
AcDbMaterial
  1
ByBlock
 72
     0
 43
0.0208333333333333
 43
0.0
 43
0.0
 43
0.0
 43
0.0
 43
0.0208333333333333
 43
0.0
 43
0.0
 43
0.0
 43
0.0
 43
1.0
 43
0.0
 43
0.0
 43
0.0
 43
0.0
 43
1.0
 77
     0
 47
0.0208333333333333
 47
0.0
 47
0.0
 47
0.0
 47
0.0
 47
0.0208333333333333
 47
0.0
 47
0.0
 47
0.0
 47
0.0
 47
1.0
 47
0.0
 47
0.0
 47
0.0
 47
0.0
 47
1.0
171
     0
 49
0.0208333333333333
 49
0.0
 49
0.0
 49
0.0
 49
0.0
 49
0.0208333333333333
 49
0.0
 49
0.0
 49
0.0
 49
0.0
 49
1.0
 49
0.0
 49
0.0
 49
0.0
 49
0.0
 49
1.0
175
     0
142
0.0208333333333333
142
0.0
142
0.0
142
0.0
142
0.0
142
0.0208333333333333
142
0.0
142
0.0
142
0.0
142
0.0
142
1.0
142
0.0
142
0.0
142
0.0
142
0.0
142
1.0
179
     0
144
0.0208333333333333
144
0.0
144
0.0
144
0.0
144
0.0
144
0.0208333333333333
144
0.0
144
0.0
144
0.0
144
0.0
144
1.0
144
0.0
144
0.0
144
0.0
144
0.0
144
1.0
147
0.0208333333333333
147
0.0
147
0.0
147
0.0
147
0.0
147
0.0208333333333333
147
0.0
147
0.0
147
0.0
147
0.0
147
1.0
147
0.0
147
0.0
147
0.0
147
0.0
147
1.0
  0
MATERIAL
  5
AB
102
{ACAD_XDICTIONARY
360
AC
102
}
102
{ACAD_REACTORS
330
AA
102
}
330
AA
100
AcDbMaterial
  1
ByLayer
 72
     0
 43
0.0208333333333333
 43
0.0
 43
0.0
 43
0.0
 43
0.0
 43
0.0208333333333333
 43
0.0
 43
0.0
 43
0.0
 43
0.0
 43
1.0
 43
0.0
 43
0.0
 43
0.0
 43
0.0
 43
1.0
 77
     0
 47
0.0208333333333333
 47
0.0
 47
0.0
 47
0.0
 47
0.0
 47
0.0208333333333333
 47
0.0
 47
0.0
 47
0.0
 47
0.0
 47
1.0
 47
0.0
 47
0.0
 47
0.0
 47
0.0
 47
1.0
171
     0
 49
0.0208333333333333
 49
0.0
 49
0.0
 49
0.0
 49
0.0
 49
0.0208333333333333
 49
0.0
 49
0.0
 49
0.0
 49
0.0
 49
1.0
 49
0.0
 49
0.0
 49
0.0
 49
0.0
 49
1.0
175
     0
142
0.0208333333333333
142
0.0
142
0.0
142
0.0
142
0.0
142
0.0208333333333333
142
0.0
142
0.0
142
0.0
142
0.0
142
1.0
142
0.0
142
0.0
142
0.0
142
0.0
142
1.0
179
     0
144
0.0208333333333333
144
0.0
144
0.0
144
0.0
144
0.0
144
0.0208333333333333
144
0.0
144
0.0
144
0.0
144
0.0
144
1.0
144
0.0
144
0.0
144
0.0
144
0.0
144
1.0
147
0.0208333333333333
147
0.0
147
0.0
147
0.0
147
0.0
147
0.0208333333333333
147
0.0
147
0.0
147
0.0
147
0.0
147
1.0
147
0.0
147
0.0
147
0.0
147
0.0
147
1.0
  0
MATERIAL
  5
BB
102
{ACAD_XDICTIONARY
360
BC
102
}
102
{ACAD_REACTORS
330
AA
102
}
330
AA
100
AcDbMaterial
  1
Global
 72
     0
 43
0.0208333333333333
 43
0.0
 43
0.0
 43
0.0
 43
0.0
 43
0.0208333333333333
 43
0.0
 43
0.0
 43
0.0
 43
0.0
 43
1.0
 43
0.0
 43
0.0
 43
0.0
 43
0.0
 43
1.0
 77
     0
 47
0.0208333333333333
 47
0.0
 47
0.0
 47
0.0
 47
0.0
 47
0.0208333333333333
 47
0.0
 47
0.0
 47
0.0
 47
0.0
 47
1.0
 47
0.0
 47
0.0
 47
0.0
 47
0.0
 47
1.0
171
     0
 49
0.0208333333333333
 49
0.0
 49
0.0
 49
0.0
 49
0.0
 49
0.0208333333333333
 49
0.0
 49
0.0
 49
0.0
 49
0.0
 49
1.0
 49
0.0
 49
0.0
 49
0.0
 49
0.0
 49
1.0
175
     0
142
0.0208333333333333
142
0.0
142
0.0
142
0.0
142
0.0
142
0.0208333333333333
142
0.0
142
0.0
142
0.0
142
0.0
142
1.0
142
0.0
142
0.0
142
0.0
142
0.0
142
1.0
179
     0
144
0.0208333333333333
144
0.0
144
0.0
144
0.0
144
0.0
144
0.0208333333333333
144
0.0
144
0.0
144
0.0
144
0.0
144
1.0
144
0.0
144
0.0
144
0.0
144
0.0
144
1.0
147
0.0208333333333333
147
0.0
147
0.0
147
0.0
147
0.0
147
0.0208333333333333
147
0.0
147
0.0
147
0.0
147
0.0
147
1.0
147
0.0
147
0.0
147
0.0
147
0.0
147
1.0
  0
MLEADERSTYLE
  5
FA
102
{ACAD_REACTORS
330
F9
102
}
330
F9
100
AcDbMLeaderStyle
170
     2
171
     1
172
     0
 90
        2
 40
0.0
 41
0.0
173
     1
 91
-1056964608
340
14
 92
       -2
290
     1
 42
0.09
291
     1
 43
0.36
  3
Standard
 44
0.18
300

342
11
174
     1
178
     6
175
     1
176
     0
 93
-1056964608
 45
0.18
292
     0
297
     0
 46
0.18
 94
-1056964608
 47
1.0
 49
1.0
140
1.0
293
     1
141
0.0
294
     1
177
     0
142
1.0
295
     0
296
     0
143
0.125
1001
ACAD_MLEADERVER
1070
     2
  0
MLINESTYLE
  5
18
102
{ACAD_REACTORS
330
17
102
}
330
17
100
AcDbMlineStyle
  2
STANDARD
 70
     0
  3

 62
   256
 51
90.0
 52
90.0
 71
     2
 49
0.5
 62
   256
  6
BYLAYER
 49
-0.5
 62
   256
  6
BYLAYER
  0
ACDBPLACEHOLDER
  5
2D
102
{ACAD_REACTORS
330
E
102
}
330
E
  0
ACDBPLACEHOLDER
  5
F
102
{ACAD_REACTORS
330
E
102
}
330
E
  0
SCALE
  5
D8
102
{ACAD_REACTORS
330
D7
102
}
330
D7
100
AcDbScale
 70
     0
300
1:1
140
1.0
141
1.0
290
     1
  0
SCALE
  5
D9
102
{ACAD_REACTORS
330
D7
102
}
330
D7
100
AcDbScale
 70
     0
300
1:2
140
1.0
141
2.0
290
     0
  0
SCALE
  5
DA
102
{ACAD_REACTORS
330
D7
102
}
330
D7
100
AcDbScale
 70
     0
300
1:4
140
1.0
141
4.0
290
     0
  0
SCALE
  5
DB
102
{ACAD_REACTORS
330
D7
102
}
330
D7
100
AcDbScale
 70
     0
300
1:5
140
1.0
141
5.0
290
     0
  0
SCALE
  5
DC
102
{ACAD_REACTORS
330
D7
102
}
330
D7
100
AcDbScale
 70
     0
300
1:8
140
1.0
141
8.0
290
     0
  0
SCALE
  5
DD
102
{ACAD_REACTORS
330
D7
102
}
330
D7
100
AcDbScale
 70
     0
300
1:10
140
1.0
141
10.0
290
     0
  0
SCALE
  5
DE
102
{ACAD_REACTORS
330
D7
102
}
330
D7
100
AcDbScale
 70
     0
300
1:16
140
1.0
141
16.0
290
     0
  0
SCALE
  5
DF
102
{ACAD_REACTORS
330
D7
102
}
330
D7
100
AcDbScale
 70
     0
300
1:20
140
1.0
141
20.0
290
     0
  0
SCALE
  5
E0
102
{ACAD_REACTORS
330
D7
102
}
330
D7
100
AcDbScale
 70
     0
300
1:30
140
1.0
141
30.0
290
     0
  0
SCALE
  5
E1
102
{ACAD_REACTORS
330
D7
102
}
330
D7
100
AcDbScale
 70
     0
300
1:40
140
1.0
141
40.0
290
     0
  0
SCALE
  5
E2
102
{ACAD_REACTORS
330
D7
102
}
330
D7
100
AcDbScale
 70
     0
300
1:50
140
1.0
141
50.0
290
     0
  0
SCALE
  5
E3
102
{ACAD_REACTORS
330
D7
102
}
330
D7
100
AcDbScale
 70
     0
300
1:100
140
1.0
141
100.0
290
     0
  0
SCALE
  5
E4
102
{ACAD_REACTORS
330
D7
102
}
330
D7
100
AcDbScale
 70
     0
300
2:1
140
2.0
141
1.0
290
     0
  0
SCALE
  5
E5
102
{ACAD_REACTORS
330
D7
102
}
330
D7
100
AcDbScale
 70
     0
300
4:1
140
4.0
141
1.0
290
     0
  0
SCALE
  5
E6
102
{ACAD_REACTORS
330
D7
102
}
330
D7
100
AcDbScale
 70
     0
300
8:1
140
8.0
141
1.0
290
     0
  0
SCALE
  5
E7
102
{ACAD_REACTORS
330
D7
102
}
330
D7
100
AcDbScale
 70
     0
300
10:1
140
10.0
141
1.0
290
     0
  0
SCALE
  5
E8
102
{ACAD_REACTORS
330
D7
102
}
330
D7
100
AcDbScale
 70
     0
300
100:1
140
100.0
141
1.0
290
     0
  0
SCALE
  5
E9
102
{ACAD_REACTORS
330
D7
102
}
330
D7
100
AcDbScale
 70
     0
300
1/128" = 1'-0"
140
0.0078125
141
12.0
290
     0
  0
SCALE
  5
EA
102
{ACAD_REACTORS
330
D7
102
}
330
D7
100
AcDbScale
 70
     0
300
1/64" = 1'-0"
140
0.015625
141
12.0
290
     0
  0
SCALE
  5
EB
102
{ACAD_REACTORS
330
D7
102
}
330
D7
100
AcDbScale
 70
     0
300
1/32" = 1'-0"
140
0.03125
141
12.0
290
     0
  0
SCALE
  5
EC
102
{ACAD_REACTORS
330
D7
102
}
330
D7
100
AcDbScale
 70
     0
300
1/16" = 1'-0"
140
0.0625
141
12.0
290
     0
  0
SCALE
  5
ED
102
{ACAD_REACTORS
330
D7
102
}
330
D7
100
AcDbScale
 70
     0
300
3/32" = 1'-0"
140
0.09375
141
12.0
290
     0
  0
SCALE
  5
EE
102
{ACAD_REACTORS
330
D7
102
}
330
D7
100
AcDbScale
 70
     0
300
1/8" = 1'-0"
140
0.125
141
12.0
290
     0
  0
SCALE
  5
EF
102
{ACAD_REACTORS
330
D7
102
}
330
D7
100
AcDbScale
 70
     0
300
3/16" = 1'-0"
140
0.1875
141
12.0
290
     0
  0
SCALE
  5
F0
102
{ACAD_REACTORS
330
D7
102
}
330
D7
100
AcDbScale
 70
     0
300
1/4" = 1'-0"
140
0.25
141
12.0
290
     0
  0
SCALE
  5
F1
102
{ACAD_REACTORS
330
D7
102
}
330
D7
100
AcDbScale
 70
     0
300
3/8" = 1'-0"
140
0.375
141
12.0
290
     0
  0
SCALE
  5
F2
102
{ACAD_REACTORS
330
D7
102
}
330
D7
100
AcDbScale
 70
     0
300
1/2" = 1'-0"
140
0.5
141
12.0
290
     0
  0
SCALE
  5
F3
102
{ACAD_REACTORS
330
D7
102
}
330
D7
100
AcDbScale
 70
     0
300
3/4" = 1'-0"
140
0.75
141
12.0
290
     0
  0
SCALE
  5
F4
102
{ACAD_REACTORS
330
D7
102
}
330
D7
100
AcDbScale
 70
     0
300
1" = 1'-0"
140
1.0
141
12.0
290
     0
  0
SCALE
  5
F5
102
{ACAD_REACTORS
330
D7
102
}
330
D7
100
AcDbScale
 70
     0
300
1-1/2" = 1'-0"
140
1.5
141
12.0
290
     0
  0
SCALE
  5
F6
102
{ACAD_REACTORS
330
D7
102
}
330
D7
100
AcDbScale
 70
     0
300
3" = 1'-0"
140
3.0
141
12.0
290
     0
  0
SCALE
  5
F7
102
{ACAD_REACTORS
330
D7
102
}
330
D7
100
AcDbScale
 70
     0
300
6" = 1'-0"
140
6.0
141
12.0
290
     0
  0
SCALE
  5
F8
102
{ACAD_REACTORS
330
D7
102
}
330
D7
100
AcDbScale
 70
     0
300
1'-0" = 1'-0"
140
12.0
141
12.0
290
     0
  0
TABLESTYLE
  5
D6
102
{ACAD_XDICTIONARY
360
650
102
}
102
{ACAD_REACTORS
330
D5
102
}
330
D5
100
AcDbTableStyle
  3
Standard
 70
     0
 71
     0
 40
0.06
 41
0.06
280
     0
281
     0
  7
Standard
140
0.18
170
     2
 62
     0
 63
     7
283
     0
274
    -2
284
     1
 64
     0
275
    -2
285
     1
 65
     0
276
    -2
286
     1
 66
     0
277
    -2
287
     1
 67
     0
278
    -2
288
     1
 68
     0
279
    -2
289
     1
 69
     0
  7
Standard
140
0.25
170
     5
 62
     0
 63
     7
283
     0
274
    -2
284
     1
 64
     0
275
    -2
285
     1
 65
     0
276
    -2
286
     1
 66
     0
277
    -2
287
     1
 67
     0
278
    -2
288
     1
 68
     0
279
    -2
289
     1
 69
     0
  7
Standard
140
0.18
170
     5
 62
     0
 63
     7
283
     0
274
    -2
284
     1
 64
     0
275
    -2
285
     1
 65
     0
276
    -2
286
     1
 66
     0
277
    -2
287
     1
 67
     0
278
    -2
288
     1
 68
     0
279
    -2
289
     1
 69
     0
  0
VISUALSTYLE
  5
C9
102
{ACAD_REACTORS
330
C3
102
}
330
C3
100
AcDbVisualStyle
  2
2dWireframe
 70
     4
 71
     0
 72
     2
 73
     0
 90
        0
 40
-0.6
 41
-30.0
 62
     5
 63
     7
 74
     1
 91
        4
 64
     7
 65
   257
 75
     1
175
     1
 42
1.0
 92
        0
 66
   257
 43
1.0
 76
     1
 77
     6
 78
     2
 67
     7
 79
     5
170
     0
171
     0
290
     0
174
     0
 93
        1
 44
0.0
173
     0
291
     0
 45
0.0
1001
ACAD
1000
AcDbSavedByObjectVersion
1070
     0
  0
VISUALSTYLE
  5
CB
102
{ACAD_REACTORS
330
C3
102
}
330
C3
100
AcDbVisualStyle
  2
3D Hidden
 70
     6
 71
     1
 72
     2
 73
     2
 90
        0
 40
-0.6
 41
-30.0
 62
     5
 63
     7
 74
     2
 91
        2
 64
     7
 65
   257
 75
     2
175
     1
 42
40.0
 92
        0
 66
   257
 43
1.0
 76
     1
 77
     6
 78
     2
 67
     7
 79
     3
170
     0
171
     0
290
     0
174
     0
 93
        1
 44
0.0
173
     0
291
     0
 45
0.0
1001
ACAD
1000
AcDbSavedByObjectVersion
1070
     0
  0
VISUALSTYLE
  5
CA
102
{ACAD_REACTORS
330
C3
102
}
330
C3
100
AcDbVisualStyle
  2
3dWireframe
 70
     5
 71
     0
 72
     2
 73
     0
 90
        0
 40
-0.6
 41
-30.0
 62
     5
 63
     7
 74
     1
 91
        4
 64
     7
 65
   257
 75
     1
175
     1
 42
1.0
 92
        0
 66
   257
 43
1.0
 76
     1
 77
     6
 78
     2
 67
     7
 79
     5
170
     0
171
     0
290
     0
174
     0
 93
        1
 44
0.0
173
     0
291
     0
 45
0.0
1001
ACAD
1000
AcDbSavedByObjectVersion
1070
     0
  0
VISUALSTYLE
  5
C8
102
{ACAD_REACTORS
330
C3
102
}
330
C3
100
AcDbVisualStyle
  2
Basic
 70
     7
 71
     1
 72
     0
 73
     1
 90
        0
 40
-0.6
 41
-30.0
 62
     5
 63
     7
 74
     0
 91
        4
 64
     7
 65
   257
 75
     1
175
     1
 42
1.0
 92
        8
 66
     7
 43
1.0
 76
     1
 77
     6
 78
     2
 67
     7
 79
     5
170
     0
171
     0
290
     0
174
     0
 93
        1
 44
0.0
173
     0
291
     1
 45
0.0
1001
ACAD
1000
AcDbSavedByObjectVersion
1070
     0
  0
VISUALSTYLE
  5
CF
102
{ACAD_REACTORS
330
C3
102
}
330
C3
100
AcDbVisualStyle
  2
Brighten
 70
    12
 71
     2
 72
     2
 73
     0
 90
        0
 40
-0.6
 41
-30.0
 62
     5
 63
     7
 74
     1
 91
        4
 64
     7
 65
   257
 75
     1
175
     1
 42
1.0
 92
        8
 66
     7
 43
1.0
 76
     1
 77
     6
 78
     2
 67
     7
 79
     5
170
     0
171
     0
290
     0
174
     0
 93
        1
 44
50.0
173
     0
291
     1
 45
0.0
1001
ACAD
1000
AcDbSavedByObjectVersion
1070
     0
  0
VISUALSTYLE
  5
D3
102
{ACAD_REACTORS
330
C3
102
}
330
C3
100
AcDbVisualStyle
  2
ColorChange
 70
    16
 71
     2
 72
     2
 73
     3
 90
        0
 40
-0.6
 41
-30.0
 62
     5
 63
     8
 74
     1
 91
        4
 64
     7
 65
   257
 75
     1
175
     1
 42
1.0
 92
        8
 66
     8
 43
1.0
 76
     1
 77
     6
 78
     2
 67
     7
 79
     5
170
     0
171
     0
290
     0
174
     0
 93
        1
 44
0.0
173
     0
291
     1
 45
0.0
1001
ACAD
1000
AcDbSavedByObjectVersion
1070
     0
  0
VISUALSTYLE
  5
CC
102
{ACAD_REACTORS
330
C3
102
}
330
C3
100
AcDbVisualStyle
  2
Conceptual
 70
     9
 71
     3
 72
     2
 73
     0
 90
        0
 40
-0.6
 41
-30.0
 62
     5
 63
     7
 74
     2
 91
        2
 64
     7
 65
   257
 75
     1
175
     1
 42
40.0
 92
        8
 66
     7
 43
1.0
 76
     1
 77
     6
 78
     2
 67
     7
 79
     3
170
     0
171
     0
290
     0
174
     0
 93
        1
 44
0.0
173
     0
291
     0
 45
0.0
1001
ACAD
1000
AcDbSavedByObjectVersion
1070
     0
  0
VISUALSTYLE
  5
CE
102
{ACAD_REACTORS
330
C3
102
}
330
C3
100
AcDbVisualStyle
  2
Dim
 70
    11
 71
     2
 72
     2
 73
     0
 90
        0
 40
-0.6
 41
-30.0
 62
     5
 63
     7
 74
     1
 91
        4
 64
     7
 65
   257
 75
     1
175
     1
 42
1.0
 92
        8
 66
     7
 43
1.0
 76
     1
 77
     6
 78
     2
 67
     7
 79
     5
170
     0
171
     0
290
     0
174
     0
 93
        1
 44
-50.0
173
     0
291
     1
 45
0.0
1001
ACAD
1000
AcDbSavedByObjectVersion
1070
     0
  0
VISUALSTYLE
  5
D2
102
{ACAD_REACTORS
330
C3
102
}
330
C3
100
AcDbVisualStyle
  2
Facepattern
 70
    15
 71
     2
 72
     2
 73
     0
 90
        0
 40
-0.6
 41
-30.0
 62
     5
 63
     7
 74
     1
 91
        4
 64
     7
 65
   257
 75
     1
175
     1
 42
1.0
 92
        8
 66
     7
 43
1.0
 76
     1
 77
     6
 78
     2
 67
     7
 79
     5
170
     0
171
     0
290
     0
174
     0
 93
        1
 44
0.0
173
     0
291
     1
 45
0.0
1001
ACAD
1000
AcDbSavedByObjectVersion
1070
     0
  0
VISUALSTYLE
  5
C4
102
{ACAD_REACTORS
330
C3
102
}
330
C3
100
AcDbVisualStyle
  2
Flat
 70
     0
 71
     2
 72
     1
 73
     1
 90
        2
 40
-0.6
 41
30.0
 62
     5
 63
     7
 74
     0
 91
        4
 64
     7
 65
   257
 75
     1
175
     1
 42
1.0
 92
        8
 66
     7
 43
1.0
 76
     1
 77
     6
 78
     2
 67
     7
 79
     5
170
     0
171
     0
290
     0
174
     0
 93
       13
 44
0.0
173
     0
291
     1
 45
0.0
1001
ACAD
1000
AcDbSavedByObjectVersion
1070
     0
  0
VISUALSTYLE
  5
C5
102
{ACAD_REACTORS
330
C3
102
}
330
C3
100
AcDbVisualStyle
  2
FlatWithEdges
 70
     1
 71
     2
 72
     1
 73
     1
 90
        2
 40
-0.6
 41
30.0
 62
     5
 63
     7
 74
     1
 91
        4
 64
     7
 65
   257
 75
     1
175
     1
 42
1.0
 92
        0
 66
   257
 43
1.0
 76
     1
 77
     6
 78
     2
 67
     7
 79
     5
170
     0
171
     0
290
     0
174
     0
 93
       13
 44
0.0
173
     0
291
     1
 45
0.0
1001
ACAD
1000
AcDbSavedByObjectVersion
1070
     0
  0
VISUALSTYLE
  5
C6
102
{ACAD_REACTORS
330
C3
102
}
330
C3
100
AcDbVisualStyle
  2
Gouraud
 70
     2
 71
     2
 72
     2
 73
     1
 90
        2
 40
-0.6
 41
30.0
 62
     5
 63
     7
 74
     0
 91
        4
 64
     7
 65
   257
 75
     1
175
     1
 42
1.0
 92
        0
 66
     7
 43
1.0
 76
     1
 77
     6
 78
     2
 67
     7
 79
     5
170
     0
171
     0
290
     0
174
     0
 93
       13
 44
0.0
173
     0
291
     1
 45
0.0
1001
ACAD
1000
AcDbSavedByObjectVersion
1070
     0
  0
VISUALSTYLE
  5
C7
102
{ACAD_REACTORS
330
C3
102
}
330
C3
100
AcDbVisualStyle
  2
GouraudWithEdges
 70
     3
 71
     2
 72
     2
 73
     1
 90
        2
 40
-0.6
 41
30.0
 62
     5
 63
     7
 74
     1
 91
        4
 64
     7
 65
   257
 75
     1
175
     1
 42
1.0
 92
        0
 66
   257
 43
1.0
 76
     1
 77
     6
 78
     2
 67
     7
 79
     5
170
     0
171
     0
290
     0
174
     0
 93
       13
 44
0.0
173
     0
291
     1
 45
0.0
1001
ACAD
1000
AcDbSavedByObjectVersion
1070
     0
  0
VISUALSTYLE
  5
D1
102
{ACAD_REACTORS
330
C3
102
}
330
C3
100
AcDbVisualStyle
  2
Linepattern
 70
    14
 71
     2
 72
     2
 73
     0
 90
        0
 40
-0.6
 41
-30.0
 62
     5
 63
     7
 74
     1
 91
        4
 64
     7
 65
   257
 75
     7
175
     7
 42
1.0
 92
        8
 66
     7
 43
1.0
 76
     1
 77
     6
 78
     2
 67
     7
 79
     5
170
     0
171
     0
290
     0
174
     0
 93
        1
 44
0.0
173
     0
291
     1
 45
0.0
1001
ACAD
1000
AcDbSavedByObjectVersion
1070
     0
  0
VISUALSTYLE
  5
CD
102
{ACAD_REACTORS
330
C3
102
}
330
C3
100
AcDbVisualStyle
  2
Realistic
 70
     8
 71
     2
 72
     2
 73
     0
 90
        0
 40
-0.6
 41
-30.0
 62
     5
 63
     7
 74
     1
 91
        0
 64
     7
 65
   257
 75
     1
175
     1
 42
1.0
 92
        8
 66
     8
 43
1.0
 76
     1
 77
     6
 78
     2
 67
     7
 79
     5
170
     0
171
     0
290
     0
174
     0
 93
       13
 44
0.0
173
     0
291
     0
 45
0.0
1001
ACAD
1000
AcDbSavedByObjectVersion
1070
     0
  0
VISUALSTYLE
  5
D0
102
{ACAD_REACTORS
330
C3
102
}
330
C3
100
AcDbVisualStyle
  2
Thicken
 70
    13
 71
     2
 72
     2
 73
     0
 90
        0
 40
-0.6
 41
-30.0
 62
     5
 63
     7
 74
     1
 91
        4
 64
     7
 65
   257
 75
     1
175
     1
 42
1.0
 92
       12
 66
     7
 43
1.0
 76
     1
 77
     6
 78
     2
 67
     7
 79
     5
170
     0
171
     0
290
     0
174
     0
 93
        1
 44
0.0
173
     0
291
     1
 45
0.0
1001
ACAD
1000
AcDbSavedByObjectVersion
1070
     0
  0
DICTIONARYVAR
  5
64C
102
{ACAD_REACTORS
330
649
102
}
330
649
100
DictionaryVariables
280
     0
  1
1:1
  0
DICTIONARYVAR
  5
64B
102
{ACAD_REACTORS
330
649
102
}
330
649
100
DictionaryVariables
280
     0
  1
STANDARD
  0
DICTIONARYVAR
  5
64A
102
{ACAD_REACTORS
330
649
102
}
330
649
100
DictionaryVariables
280
     0
  1
STANDARD
  0
DICTIONARYVAR
  5
64F
102
{ACAD_REACTORS
330
649
102
}
330
649
100
DictionaryVariables
280
     0
  1
1
  0
DICTIONARYVAR
  5
64E
102
{ACAD_REACTORS
330
649
102
}
330
649
100
DictionaryVariables
280
     0
  1
0
  0
DICTIONARYVAR
  5
64D
102
{ACAD_REACTORS
330
649
102
}
330
649
100
DictionaryVariables
280
     0
  1
127
  0
DICTIONARY
  5
653
330
1E
100
AcDbDictionary
280
     1
281
     1
  3
ACAD_XREC_ROUNDTRIP
360
654
  0
DICTIONARY
  5
657
330
26
100
AcDbDictionary
280
     1
281
     1
  3
ACAD_XREC_ROUNDTRIP
360
658
  0
DICTIONARY
  5
655
330
22
100
AcDbDictionary
280
     1
281
     1
  3
ACAD_XREC_ROUNDTRIP
360
656
  0
DICTIONARY
  5
B4
330
B3
100
AcDbDictionary
280
     1
281
     1
  3
ACAD_XREC_ROUNDTRIP
360
65A
  3
BUMPTILE
360
B6
  3
DIFFUSETILE
360
B5
  3
OPACITYTILE
360
B9
  3
REFLECTIONTILE
360
B8
  3
REFRACTIONTILE
360
BA
  3
SPECULARTILE
360
B7
  0
DICTIONARY
  5
AC
330
AB
100
AcDbDictionary
280
     1
281
     1
  3
ACAD_XREC_ROUNDTRIP
360
659
  3
BUMPTILE
360
AE
  3
DIFFUSETILE
360
AD
  3
OPACITYTILE
360
B1
  3
REFLECTIONTILE
360
B0
  3
REFRACTIONTILE
360
B2
  3
SPECULARTILE
360
AF
  0
DICTIONARY
  5
BC
330
BB
100
AcDbDictionary
280
     1
281
     1
  3
ACAD_XREC_ROUNDTRIP
360
65B
  3
BUMPTILE
360
BE
  3
DIFFUSETILE
360
BD
  3
OPACITYTILE
360
C1
  3
REFLECTIONTILE
360
C0
  3
REFRACTIONTILE
360
C2
  3
SPECULARTILE
360
BF
  0
DICTIONARY
  5
650
330
D6
100
AcDbDictionary
280
     1
281
     1
  3
ACAD_ROUNDTRIP_2008_TABLESTYLE_CELLSTYLEMAP
360
651
  3
ACAD_XREC_ROUNDTRIP
360
65C
  0
XRECORD
  5
654
102
{ACAD_REACTORS
330
653
102
}
330
653
100
AcDbXrecord
280
     1
102
SHADEPLOT
 70
     0
102
SHADEPLOTRESLEVEL
 70
     2
102
SHADEPLOTCUSTOMDPI
 70
   300
  0
XRECORD
  5
658
102
{ACAD_REACTORS
330
657
102
}
330
657
100
AcDbXrecord
280
     1
102
SHADEPLOT
 70
     0
102
SHADEPLOTRESLEVEL
 70
     2
102
SHADEPLOTCUSTOMDPI
 70
   300
  0
XRECORD
  5
656
102
{ACAD_REACTORS
330
655
102
}
330
655
100
AcDbXrecord
280
     1
102
SHADEPLOT
 70
     0
102
SHADEPLOTRESLEVEL
 70
     2
102
SHADEPLOTCUSTOMDPI
 70
   300
  0
XRECORD
  5
65A
102
{ACAD_REACTORS
330
B4
102
}
330
B4
100
AcDbXrecord
280
     1
102
MATERIAL
148
0.0
149
0.0
149
0.0
 93
        0
 94
      127
282
     0
 72
     0
 77
     0
171
     0
175
     0
179
     0
273
     0
  0
XRECORD
  5
B6
102
{ACAD_REACTORS
330
B4
102
}
330
B4
100
AcDbXrecord
280
     1
270
     1
271
     1
  0
XRECORD
  5
B5
102
{ACAD_REACTORS
330
B4
102
}
330
B4
100
AcDbXrecord
280
     1
270
     1
271
     1
  0
XRECORD
  5
B9
102
{ACAD_REACTORS
330
B4
102
}
330
B4
100
AcDbXrecord
280
     1
270
     1
271
     1
  0
XRECORD
  5
B8
102
{ACAD_REACTORS
330
B4
102
}
330
B4
100
AcDbXrecord
280
     1
270
     1
271
     1
  0
XRECORD
  5
BA
102
{ACAD_REACTORS
330
B4
102
}
330
B4
100
AcDbXrecord
280
     1
270
     1
271
     1
  0
XRECORD
  5
B7
102
{ACAD_REACTORS
330
B4
102
}
330
B4
100
AcDbXrecord
280
     1
270
     1
271
     1
  0
XRECORD
  5
659
102
{ACAD_REACTORS
330
AC
102
}
330
AC
100
AcDbXrecord
280
     1
102
MATERIAL
148
0.0
149
0.0
149
0.0
 93
        0
 94
      127
282
     0
 72
     0
 77
     0
171
     0
175
     0
179
     0
273
     0
  0
XRECORD
  5
AE
102
{ACAD_REACTORS
330
AC
102
}
330
AC
100
AcDbXrecord
280
     1
270
     1
271
     1
  0
XRECORD
  5
AD
102
{ACAD_REACTORS
330
AC
102
}
330
AC
100
AcDbXrecord
280
     1
270
     1
271
     1
  0
XRECORD
  5
B1
102
{ACAD_REACTORS
330
AC
102
}
330
AC
100
AcDbXrecord
280
     1
270
     1
271
     1
  0
XRECORD
  5
B0
102
{ACAD_REACTORS
330
AC
102
}
330
AC
100
AcDbXrecord
280
     1
270
     1
271
     1
  0
XRECORD
  5
B2
102
{ACAD_REACTORS
330
AC
102
}
330
AC
100
AcDbXrecord
280
     1
270
     1
271
     1
  0
XRECORD
  5
AF
102
{ACAD_REACTORS
330
AC
102
}
330
AC
100
AcDbXrecord
280
     1
270
     1
271
     1
  0
XRECORD
  5
65B
102
{ACAD_REACTORS
330
BC
102
}
330
BC
100
AcDbXrecord
280
     1
102
MATERIAL
148
0.0
149
0.0
149
0.0
 93
        0
 94
      127
282
     0
 72
     0
 77
     0
171
     0
175
     0
179
     0
273
     0
  0
XRECORD
  5
BE
102
{ACAD_REACTORS
330
BC
102
}
330
BC
100
AcDbXrecord
280
     1
270
     1
271
     1
  0
XRECORD
  5
BD
102
{ACAD_REACTORS
330
BC
102
}
330
BC
100
AcDbXrecord
280
     1
270
     1
271
     1
  0
XRECORD
  5
C1
102
{ACAD_REACTORS
330
BC
102
}
330
BC
100
AcDbXrecord
280
     1
270
     1
271
     1
  0
XRECORD
  5
C0
102
{ACAD_REACTORS
330
BC
102
}
330
BC
100
AcDbXrecord
280
     1
270
     1
271
     1
  0
XRECORD
  5
C2
102
{ACAD_REACTORS
330
BC
102
}
330
BC
100
AcDbXrecord
280
     1
270
     1
271
     1
  0
XRECORD
  5
BF
102
{ACAD_REACTORS
330
BC
102
}
330
BC
100
AcDbXrecord
280
     1
270
     1
271
     1
  0
CELLSTYLEMAP
  5
651
102
{ACAD_REACTORS
330
650
102
}
330
650
100
AcDbCellStyleMap
 90
        3
300
CELLSTYLE
  1
TABLEFORMAT_BEGIN
 90
        5
170
     1
 91
        0
 92
    32768
 62
   257
 93
        1
300
CONTENTFORMAT
  1
CONTENTFORMAT_BEGIN
 90
        0
 91
        0
 92
      512
 93
        0
300

 40
0.0
140
1.0
 94
        5
 62
     0
340
11
144
0.25
309
CONTENTFORMAT_END
171
     0
 94
        0
309
TABLEFORMAT_END
  1
CELLSTYLE_BEGIN
 90
        1
 91
        1
300
_TITLE
309
CELLSTYLE_END
300
CELLSTYLE
  1
TABLEFORMAT_BEGIN
 90
        5
170
     1
 91
        0
 92
        0
 62
   257
 93
        1
300
CONTENTFORMAT
  1
CONTENTFORMAT_BEGIN
 90
        0
 91
        0
 92
      512
 93
        0
300

 40
0.0
140
1.0
 94
        5
 62
     0
340
11
144
0.18
309
CONTENTFORMAT_END
171
     0
 94
        0
309
TABLEFORMAT_END
  1
CELLSTYLE_BEGIN
 90
        2
 91
        1
300
_HEADER
309
CELLSTYLE_END
300
CELLSTYLE
  1
TABLEFORMAT_BEGIN
 90
        5
170
     1
 91
        0
 92
        0
 62
   257
 93
        1
300
CONTENTFORMAT
  1
CONTENTFORMAT_BEGIN
 90
        0
 91
        0
 92
      512
 93
        0
300

 40
0.0
140
1.0
 94
        2
 62
     0
340
11
144
0.18
309
CONTENTFORMAT_END
171
     0
 94
        0
309
TABLEFORMAT_END
  1
CELLSTYLE_BEGIN
 90
        3
 91
        2
300
_DATA
309
CELLSTYLE_END
  0
XRECORD
  5
65C
102
{ACAD_REACTORS
330
650
102
}
330
650
100
AcDbXrecord
280
     1
102
ACAD_ROUNDTRIP_PRE2007_TABLESTYLE
 90
      512
 91
        0
  1

 92
      512
 93
        0
  2

 94
      512
 95
        0
  3

  0
ENDSEC
  0
EOF
